Newgrounds – Switch Vs Evil-dog Round 1 tab

umm yea this song is like the ultimate punk rock song everrr
besides "Hell Song" but this is a close 2nd.

///// - pick slide
x - ghost note
PM - palm mute
~ vibrato
/ - slide
b - bend

song starts out like


]--------------------------------------------------|]--------------------------------------------------|]-9-x-x-x-x-7-x-x-x-x------------------------------|]-9-x-x-x-x-7-x-x-x-x-7----------------------------| x2]-7-x-x-x-x-5-x-x-x-x-7----------------------------|]---------------------5----------------------------|
]--------------------------------------------------|]------------------------------PM------------------|]-9-x-x-x-x-7-x-x-x-x----------/-\-----------------|]-9-x-x-x-x-7-x-x-x-x-}x3---7--7-7--7--------------|]-7-x-x-x-x-5-x-x-x-x-------7--7-7--7--------------|]---------------------------5--5-5--5--------------|
]--------------------------------------------------\\-----|]---------------------------------------------------------| \]-9--11--12--11--9--7-7-----------------------------------| \]-------------------------7----2---0--2-------------------| \]-7--9---10--9---7--5-5---7-------------------------------| \]-------------------------5-------------------------------| \
)x 4]---------------------------------------------------------| /]---------------------------------------------------------| /]-9--11--12--11--9--7-7-----------------------------------| /]-------------------------7-7-7-7-5-5-5-5-4-4-4-4---------| /]-7--9---10--9---7--5-5-----------------------------------| /]--------------------------------------------------//-----|
but on the last time do this
]--------------------------------------------------|]-------------------------8~-----------------------|]------------------7--7----------------------------|]------------------7--7----------------------------|]------------------5--5----------------------------|]--------------------------------------------------|
then this is kinda verse 1... i think
]--------------------------PM-------PM----PM------PM-----|]--/PM\--------/PM\--------/-\-----/-\----/-\----/-\-----|]-12-12--12----11-11--11---9-9-9---7-7-7--9-9-9--9-9-9---|]-12-12--12----11-11--11---9-9-9---7-7-7--9-9-9--9-9-9---|]-10-10--10/9--9--9---9/7--7-7-7/5-5-5-5--7-7-7--7-7-7---|]--------------------------------------------------------|
]--------------------------------------------------|]--------------------------------------------------|]--------------------------------------------------|]--------------------------------------------------|]--------------------------------------------------|]--3--5/7~~----------------------------------------|
]--------------------------PM-------PM-------|]--/PM\--------/PM\--------/-\-----/-\-------|]-12-12--12----11-11--11---9-9-9---7-7-7-----|]-12-12--12----11-11--11---9-9-9---7-7-7-----|]-10-10--10/9--9--9---9/7--7-7-7/5-5-5-5-----|]--------------------------------------------|
]------------------------------------------------------|]------------------------------------------------------|]------------------------------------------------------|]------------------------------------------------------|]---------2--------------------------------------------|]--3---5-----5-----------------------------------------|
]------------------------------------------------------|]------------------------------------------------------|]--11-11-11/9-9-9/-11-11-11/-9-9-9/12-12-12--12-12-12--|]------------------------------------------------------|]--9--9--9/-7-7-7/-9--9--9/-7-7-7/-10-10-10--10-10-10--|]------------------------------------------------------|
]--------------------------------------------------|]--------------------------------------------------|]-9-9----------------------------------------------|]-----12-12-10-10-9-9------------------------------|]--------------------------------------------------|]--------------------------------------------------|
]------------------------------------------------------|]------------------------------------------------------|]--11-11-11/9-9-9/-11-11-11/-9-9-9/--------------------|]------------------------------------------------------|]--9--9--9/-7-7-7/-9--9--9/-7-7-7/---------------------|]------------------------------------------------------|
]--------------------------------------------------|]--------------------------------------------------|]-11-11--9-11-11--9-11-11--9-11-11-----------------|]--------------------------------------------------|]-9--9---7-9--9---7-9--9---7-9--9------------------|]--------------------------------------------------|
]--------------------------------------------------|]--------------------------------------------------|]-9-12-12--11-12-12--11-12-12--9-------------------|]--------------------------------------------------|]-7-10-10--9--10-10--9--10-10--7-------------------|]--------------------------------------------------|
]--------------------------------------------------|]--------------------------------------------------|]--------------------------------------------------|]--------------------------------------------------|]--------------------------------------------------|]---/////////////////////////////////////----------|
]--------------------------------------------------|]--------------------------------------------------|]-9-------7----------------------------------------|]-9---5---7--7-------------------------------------|]-7---5---5--7-------------------------------------|]-----3------5-------------------------------------|
]--------------------------------------------------|]--------------------------------------------------|]--------------------------------------------------|]--7--7-7-7-7-7--9--7------7-7-7-7-7-7-------------|]----------------------10--------------10-9-7------|]--------------------------------------------------|
then again..]--------------------------------------------------|]--------------------------------------------------|]-9-------7----------------------------------------|]-9---5---7--7-------------------------------------|]-7---5---5--7-------------------------------------|]-----3------5-------------------------------------|
]--------------------------------------------------|]--------------------------------------------------|]--------------------------------------------------|]-------4-5--5--4--7-5-4-5-4--5-4------------------|]-7-7-7--------------------------------------------|]--------------------------------------------------|
then repeat the first part again and then after the 2nd chords play
]----------------------------------------------------|]----------------------------------------------------|]----------------------------------------------------|]------------------4-4-4-4-4-4-4-4--5-4---5-4-7----9-|]--7-7-7-7-7-7-7-7----------------------7-------7--7-|]----------------------------------------------------|
then i guess this is the bridge or what not. PM---------------------------------------------------|]--------------------------------------------------\----|]-------------------------------------------------------| \]-12-12-12-11-11-11-9-9-9---------9-9-9-9-9-9-9-9-------| \]-12-12-12-11-11-11-9-9-9---------9-9-9-9-9-9-9-9-- ----| x3]-10-10-10-9--9--9--7-7-7--10-9-7-7-7-7-7-7-7-7-7-------| /]-------------------------------------------------------| /
then on the last one]------------------------------------------------------------|]------------------------------------------------------------|]-12--12--11--11--9--9-----------9-9-9-9-9-9-9-9-------------|]-12--12--11--11--9--9-----------9-9-9-9-9-9-9-9----------7--|]-10--10--9---9---7--7---10-9-7--7-7-7-7-7-7-7-7---7-9-10----|]------------------------------------------------------------|
then the breakout]--------------------------------------------------|]--------------------------------------------------|]-9--7/-9------------------------------------------|]-9--7/-9------------------------------------------|]-7--5/-7--10--9--7------7--9----------------------|]--------------------10----------------------------|
]--------------------------------------------------|]-----------------------10-8--7--8-----------------|]-9--7/-9------------------------------------------|]-9--7/-9------------------------------------------|]-7--5/-7----10--9--7------------------------------|]--------------------------------------------------|
]----------------------------------------------------|]----------------------------------------------------|]-9--7/-9--------------------------------------------|]-9--7/-9--------------------------------------------|]-7--5/-7--10--9--7------10--9-----------------------|]--------------------10------------------------------|
]--------------------------------------------------|]----------8--7------------------------------------|]-9--7/-9--------9---12--11------------------------|]-9--7/-9------------12--11------------------------|]-7--5/-7------------10--9-------------------------|]--------------------------------------------------|
]--------------------------------------------------|]--------------------------------------------------|]-9--7/-9------------------------------------------|]-9--7/-9------------------------------------------|]--------------------------------------------------|]--------------------------------------------------|
]--------------------------------------------------|]--------------------------------------------------|]-9--7/-9------12-11------12b(full)-11-12----------|]-9--7/-9-------------14------------------14-------|]--------------------------------------------------|]--------------------------------------------------|
]--------------------------------------------------|]--------------------------------------------------|]--------------------------------------------------|]-12-14----12--------------------------------------|]--------------15--14-12--14--15--14~---12--14~----|]--------------------------------------------------|
]-------------------------------------------|]-------------------------------------------|]---12-11--9--12--11------------------------|]-------------12--11----2-------------------|]-------------10--9-----2-------------------|]-----------------------0-------------------|
and yea... there u go...
Please rate this tab:
x1.0