Newsong – Take It All tab

Hillsong United - Take it all

I have looked around the internet and havent found a single tab to really match the I 
Revolution CD's version. This is the way I play the song and would like to share this 
worship song. I find it is fairly accurate.

Lead 1


-------------------------------------------|-14--14--14----12--12--12----11--11--11----|-------------------------------------------|-------------------------------------------|-------------------------------------------|-------------------------------------------|
follow with these-14-14----14----14----|-------11----11-------|----------------------| (1st & 3rd time)----------------------|----------------------|----------------------|
-12-12----12-----12---|-------11----11-------|----------------------| (2nd time)----------------------|----------------------|----------------------|
---------(7)-(7)----------(5)-(5)-|-(7)-(7)-(7)-(7)--(5)-(5)-(5)-(5)-|-(7)-(7)----------(5)-(5)---------| (4th time,using----------------------------------| harmonics)----------------------------------|----------------------------------|
VERSE 1: Searching the world The lost will be found In freedom we live As one we cry out You carried the cross You died and rose again My God I’ll only ever give my all Bridge 1
|--------------------||--------------------||--------------------||----------------88--||-999--999--9998888--| x 5|-999--999--9998866--||-777--777--77766----|
|--------------------||--------------------||----------11111111--||-666-666--22222222--||-666-666--22222222--||-444-444------------|
Verse 2: You sent Your Son From heaven to earth You delivered us all It’s eternally heard I searched for truth And all I found was You My God I’ll only ever give my all
Fill 1---------------------------|---------0-------0---------|-------3---3---3-----------|-----4-------4-------------|---------------------------|---------------------------|
Chorus
|-----------------------------------------||-----------------------------------------||-4-444444----------------------1-111111--||-4-444444--4-444444--6-666666--2-222222--||-2-222222--4-444444--6-666666--2-222222--||-----------2-222222--4-444444------------|
|----------------------------------||----------------------------------||-4-444444----------------------6--||-4-444444--4-444444--6-666666--6--||-2-222222--4-444444--6-666666--4--||-----------2-222222--4-444444-----|
Chorus: Jesus we’re living for Your Name We’ll never be ashamed of You Whoa o oh Our praise and all we are today Take take take it all Take take take it all Fill 2
|-------------------------||-------------------------||-4444--6666--8888--9999--||-4444--6666--8888--9999--||-2222--4444--6666--7777--||-------------------------|
Bridge 2|-------------------------------------------------------------------||-------------------------------------------------------------------||-666---------11---666----------666---------11-1--4444444444444444--||-666--6--44--22---666--6--44---666--4--44--22-2--4444444444444444--||-444--6--44--22---444--6--44---444--4--44--22-2--2222222222222222--| x 2|------4--22------------4--22--------6--22--------------------------|
Running to the One Who heals the blind Following the shining light In Your hands The power to save the world In my life Running to the One Who heals the blind Following the shining light In Your hands The power to save the world In my life Outro
-----9---------------------9-11-|------------12-------11---------|--11-----11-------11------------|9------9--------9--------9------|--------------------------------|--------------------------------|
-----9--------------------------|------------12-------11b12r11---|--11-----11------11----------11-|9------9-------9----9-----------|--------------------------------|--------------------------------|
Lead 1 x 1 No guitar verse 1 Lead 1 x 1/2 Bridge 1 x 1 verse 2 chorus x 1 Lead 1 x 1/2 Bridge 1 x 1 verse 2 chorus x 2 Fill 1 x 1 Bridge 2 x 1 chorus x 4 Outro
Please rate this tab:
x1.0