Nick Drake - Blossom Friend tab

Title: Blossom Friend
Artist: Nick Drake
Words: Nick Drake
Music: Nick Drake
Tabber: Benjamin Blue
Tempo = 136
Steel Guitar


n - pick stroke down


E |----------------------------|B |--------6-----------6-------|G |--------6-----------6-------|D |-----6-----6-----6-----6----|A |--4-------------------------|E |--------------8-------------|
--------------2-------------------------------------|--------------2-------------------------------------|----------------------------------------------------|--------4-----------4-----------4-----------4-------|--------------------------4-------------------------|--6-----------------------------------6--4----------|
--------------------2-------|--------2--------2---------||--------7-----------2-------|--------4--1-----4---------||--------6--------3-----3----|-----5-----------5--------o||-----6-----6----------------|-----------------------4--o||----------------------------|---------------------------||--4-----------4-------------|--4-----------4-----4------||
--------2-----------2-------|----------------------------|--------2-----------2-------|--------6-----------6-------|----------------------------|--------6-----------6-------|-----4-----4-----4-----4----|-----6-----6-----6-----6----|--------------4-------------|--4-----------4-------------|--6-------------------------|----------------------------|
----------------------------|--------2--------2----------|--------4-----------4-------|--------2--------2----------|--------5-----------5-------|----------------------------|-----6-----6-----6-----6----|-----4--------4--------4----|----------------------------|-----------1--------1-------|--8-----------8-------------|--6-------------------------|
----------------------------|----------------------------|--------6--------6----------|--------2--------2----------|--------6--------6----------|----------------------------|-----6--------6--------6----|-----4--------4--------4----|--4--------4--------4-------|--0--------0--------0-------|----------------------------|----------------------------|
----------------------------|----------------------------|--------6--------6----------|--------2--------2----------|--------6--------6----------|----------------------------|-----6--------6--------6----|-----4--------4--------4----|--4--------4--------4-------|--0--------0--------0-------|----------------------------|----------------------------|
----------------------------||---------------------------|--------2--------2-----2----||-------6-----------6-------|----------------------------||o------6-----------6-------|-----4--------4-------------||o---6-----6-----6-----6----|--0--------0--------0-------||-4-------------------------|----------------------------||-------------8-------------|
--------2-------------------|--------------------2-------|--------2-------------------|--------7-----------2-------|----------------------------|--------6--------3-----3----|-----4-----4-----4-----4----|-----6-----6----------------|--------------4-------------|----------------------------|--6-----------------6-------|--4-----------4-------------|
--------2--------2---------||--------2-----------2-------|--------4--1-----4---------||--------2-----------2-------|-----5-----------5--------o||----------------------------|-----------------------4--o||-----4-----4-----4-----4----|---------------------------||--------------4-------------|--4-----------4-----4------||--6-------------------------|
----------------------------|----------------------------|--------6-----------6-------|--------4-----------4-------|--------6-----------6-------|--------5-----------5-------|-----6-----6-----6-----6----|-----6-----6-----6-----6----|--4-----------4-------------|----------------------------|----------------------------|--8-----------8-------------|
--------2--------2----------|----------------------------|--------2--------2----------|--------6--------6----------|----------------------------|--------6--------6----------|-----4--------4--------4----|-----6--------6--------6----|-----------1--------1-------|--4--------4--------4-------|--6-------------------------|----------------------------|
----------------------------|----------------------------|--------2--------2----------|--------6--------6----------|----------------------------|--------6--------6----------|-----4--------4--------4----|-----6--------6--------6----|--0--------0--------0-------|--4--------4--------4-------|----------------------------|----------------------------|
----------------------------|----------------------------|--------2--------2----------|--------6--------6----------|----------------------------|--------6--------6----------|-----4--------4--------4----|-----6--------6--------6----|--0--------0--------0-------|--4--------4--------4-------|----------------------------|----------------------------|
----------------------------|--------2--------2----------|--------0--------0----------|--------2--------2----------|--------10-------10---------|----------------------------|-----6----------------------|-----4--------4--------4----|--4-----------11-------11---|-----------4--------4-------|-----------9--------9-------|--6-------------------------|
----------------------------|--------2--------2----------|--------6--------6----------|--------2--------2----------|--------6--------6----------|----------------------------|-----6--------6--------6----|-----4--------4--------4----|--4--------4--------4-------|-----------4--------4-------|----------------------------|--6-------------------------|
----------------------------|--------2--------2----------|--------6--------6----------|--------2--------2----------|--------6--------6----------|----------------------------|-----6--------6--------6----|-----4--------4--------4----|--4--------4--------4-------|-----------4--------4-------|----------------------------|--6-------------------------|
--------2--------2----------|--------------------2-------|--------2--------2----------|--------7-----------2-------|----------------------------|--------6--------3-----3----|-----4--------4--------4----|-----6-----6----------------|-----------4--------4-------|----------------------------|--6-------------------------|--4-----------4-------------|
--------2--------2----------||---------------------------|--------4--1-----4----------||-------6-----------6-------|-----5-----------5----------||o------6-----------6-------|-----------------------4----||o---6-----6-----6-----6----|----------------------------||-4-------------------------|--4-----------4-----4-------||-------------8-------------|
--------2-------------------|--------------------2-------|--------2-------------------|--------7-----------2-------|----------------------------|--------6--------3-----3----|-----4-----4-----4-----4----|-----6-----6----------------|--------------4-------------|----------------------------|--6-----------------6-------|--4-----------4-------------|
--------2--------2---------||--------2-----------2-------|--------4--1-----4---------||--------2-----------2-------|-----5-----------5--------o||----------------------------|-----------------------4--o||-----4-----4-----4-----4----|---------------------------||--------------4-------------|--4-----------4-----4------||--6-------------------------|
----------------------------|----------------------------|--------6-----------6-------|--------4-----------4-------|--------6-----------6-------|--------5-----------5-------|-----6-----6-----6-----6----|-----6-----6-----6-----6----|--4-----------4-------------|----------------------------|----------------------------|--8-----------8-------------|
--------2--------2----------|----------------------------|--------2--------2----------|--------6--------6----------|----------------------------|--------6--------6----------|-----4--------4--------4----|-----6--------6--------6----|-----------1--------1-------|--4--------4--------4-------|--6-------------------------|----------------------------|
----------------------------|----------------------------|--------2--------2----------|--------6--------6----------|----------------------------|--------6--------6----------|-----4--------4--------4----|-----6--------6--------6----|--0--------0--------0-------|--4--------4--------4-------|----------------------------|----------------------------|
----------------------------|----------------------------||--------2--------2----------|--------2--------2-----2----||----------------------------|----------------------------||-----4--------4--------4----|-----4--------4-------------||--0--------0--------0-------|--0--------0--------0-------||----------------------------|----------------------------||
---------------------------|--------2-------------------|-------6-----------6-------|--------2-------------------|o------6-----------6-------|----------------------------|o---6-----6-----6-----6----|-----4-----4-----4-----4----|-4-------------------------|--------------4-------------|-------------8-------------|--6-----------------6-------|
--------------------2-------|--------2--------2---------||--------7-----------2-------|--------4--1-----4---------||--------6--------3-----3----|-----5-----------5--------o||-----6-----6----------------|-----------------------4--o||----------------------------|---------------------------||--4-----------4-------------|--4-----------4-----4------||
--------2-----------2-------|----------------------------|--------2-----------2-------|--------6-----------6-------|----------------------------|--------6-----------6-------|-----4-----4-----4-----4----|-----6-----6-----6-----6----|--------------4-------------|--4-----------4-------------|--6-------------------------|----------------------------|
----------------------------|--------2--------2----------||--------4-----------4-------|--------2--------2----------||--------5-----------5-------|----------------------------||-----6-----6-----6-----6----|-----4--------4--------4----||----------------------------|-----------1--------1-------||--8-----------8-------------|--6-------------------------||
---------------------------|---------------------------||-------6--------6----------|--------2--------2---------||o------6--------6----------|--------------------------o||o---6--------6--------6----|-----4--------4--------4--o||-4--------4--------4-------|--0--------0--------0------||---------------------------|---------------------------||
----------------------------|----------------------------||--------6--------7----------|--4--------6L----------6----||--------6--------6----------|--6--------6L----------6----||-----6--------6--------6----|--------6-------------------||--4--------4--------4-------|-----4----------------------||----------------------------|----------------------------||
Tap to rate this tab
 
# A B C D E F G H I J K L M N O P Q R S T U V W X Y Z