Nickelback - Woke Up This Morning tab

                   Woke up this morning by Nickelback

Standard tuning
tabbed by: John fournier

This is an amazing song this is how my bands play it. Hopefully it's 100% right.
                                                    
                                                                 
E||------------------------------|------------------------------|B||-----1---1-----1---1----------|-----1---1-----1---1----------|G||------------------------------|------------------------------|D||-------2---------2--------3-3-|-------2---------2--------6-6-|A||--------------------------1-1-|------------------------------|E||--x---------x---------x-x-----|--x---------x---------x-x-4-4-|
------------------------------|---------------------------|---------1-----1---1----------|-----1---1/----------------|-----5------------------------|--------------x------------|-------2---------2--------1-1-|-------2---------3-3---1-1-|------------------------------|-----------------1-1-------|--x---------x---------x-x-----|--x------------------------|
--------------------------|---------------------------|----1---1-----1---1-------|-----1---1-----1---1-------|--------------------------|------------------------1--|------2---------2------3--|-------2---------2---------|-----------------------1--|---------------------------|-----------x--------------|---x--------x-----------4--|
---------------------------|---------------------------|-----1---1-----1---1-------|-----1---1/----------------|---------------------------|--------------x------------|-------2---------2------1--|-------2---------3-3---1-1-|---------------------------|-----------------1-1-------|---x--------x--------------|---x-----------------------|
---------------------------|---------------------------|--------------------|----1---1-----1---1--------|----1---1-----1---1--------|-----1--------------|-----------------------3-3-|-----------------------3-3-|--------------------|------2---------2------3-3-|------2---------2------3-3-|--------------------|---------------------------|---------------------------|--------------------|-----------x---------------|-----------x---------------|---x----------------|
--------------------|-----------------------------|--------------------|----1---1----------1-----1h3-|--3-----------------|-----------------3h----------|--3-----------------|------2----------------------|-------------3/-----|---------------------1-1-----|--------------------|-------------4-4-------------|
-----------------------------|-----------------------------|----1---1----------1-----1h3-|----1---1----------1-----1h3-|-----------------3h----------|-----------------3h----------|------2----------------------|------2----------------------|---------------------1-1-----|---------------------1-1-----|-------------4-4-------------|-------------4-4-------------|
-----------------------------|-------------------|-------------------|----1---1----------1-----1h3-|-------------------|-------------------|-----------------3h----------|-------------------|--3----------------|------2----------------------|--6----------------|-------------------|---------------------1-1-----|-------------------|--1----------------|-------------4-4-------------|--4----------------|-------------------|
------------------|-------------------|----------------------|------------------|-------------------|----------------------|------------------|-------------------|----------------------|------------------|-------------------|-------0-1-2----------|------------------|--------------3/---|----------------------|------------------|-------------------|----x-----------------|
--------------------|----------------------|--------------------|--------------------|----------------------|--------------------|--1-----------------|----------------------|--1-----------------|---------1----------|-------0-1-2----------|---------1----------|--------------------|----------------------|--------------------|--4-----------------|----x-----------------|--4-----------------|
----------------------|--------------------|--------------------|----------------------|--------------------|--------------------|----------------------|--1-----------------|--1-----------------|-------0-1-2----------|---------1----------|---------1----------|----------------------|--------------------|--------------------|----x-----------------|--4-----------------|--4-----------------|
-------------------|--------------------|--------------------------|-------------------|--------------------|----1---1-----1---1-------|-------------------|--------------------|--------------------------|--3----------------|--1-1---------------|------2---------2------3--|-------------------|--------------------|-----------------------1--|--1----------------|--------------------|-----------x--------------|
---------------------------|---------------------------|-----1---1-----1---1-------|-----1---1-----1---1-------|------------------------1--|---------------------------|-------2---------2---------|-------2---------2------1--|---------------------------|---------------------------|---x--------x-----------4--|---x--------x--------------|
---------------------------|---------------------------|-----1---1/----------------|----1---1-----1---1--------|--------------x------------|-----------------------3-3-|-------2---------3-3---1-1-|------2---------2------3-3-|-----------------1-1-------|---------------------------|---x-----------------------|-----------x---------------|
---------------------------|--------------------|--------------------|----1---1-----1---1--------|-----1--------------|--------------------|-----------------------3-3-|--------------------|--3-----------------|------2---------2------3-3-|--------------------|--3-----------------|---------------------------|--------------------|-------------3/-----|-----------x---------------|---x----------------|--------------------|
-----------------------------|-----------------------------|----1---1----------1-----1h3-|----1---1----------1-----1h3-|-----------------3h----------|-----------------3h----------|------2----------------------|------2----------------------|---------------------1-1-----|---------------------1-1-----|-------------4-4-------------|-------------4-4-------------|
-----------------------------|-----------------------------|--------------|----1---1----------1-----1h3-|----1---1----------1-----1h3-|--------------|-----------------3h----------|-----------------3h----------|--------------|------2----------------------|------2----------------------|--6-----------|---------------------1-1-----|---------------------1-1-----|--------------|-------------4-4-------------|-------------4-4-------------|--4-----------|
-------------------|------------------|-------------------|-------------------|------------------|-------------------|--3----------------|------------------|-------------------|-------------------|------------------|-------------------|--1----------------|------------------|--------------3/---|-------------------|------------------|-------------------|
----------------------|--------------------|----------------------|----------------------|--------------------|----------------------|----------------------|--1-----------------|----------------------|-------0-1-2----------|---------1----------|-------0-1-2----------|----------------------|--------------------|----------------------|----x-----------------|--4-----------------|----x-----------------|
--------------------|----------------------|--------------------|--------------------|----------------------|--------------------|--1-----------------|----------------------|--1-----------------|---------1----------|-------0-1-2----------|---------1----------|--------------------|----------------------|--------------------|--4-----------------|----x-----------------|--4-----------------|
--------------------|-------------------|--------------------|--------------------|-------------------|--------------------|--1-----------------|-------------------|--------------------|---------1----------|--3----------------|--1-1---------------|--------------------|-------------------|--------------------|--4-----------------|--1----------------|--------------------|
--------------------------|---------------------------|----1---1-----1---1-------|-----1---1-----1---1-------|--------------------------|------------------------1--|------2---------2------3--|-------2---------2---------|-----------------------1--|---------------------------|-----------x--------------|---x--------x-----------4--|
---------------------------|---------------------------|-----1---1-----1---1-------|-----1---1-----1---1-------|---------------------------|---------------------------|-------2---------2------1--|-------2---------2------1--|---------------------------|---------------------------|---x--------x--------------|---x--------x--------------|
--------------------------|------------------------|---------------------------------------------------|------------------------|---------------------------------------------------|------------------------|--------------------------------0-1-2------1-------|-------0-1-2------------|-------0-1-2----0------------------------4/--3--1--|------------------------|-------------------1--3------x---------------------|----x-----------3----1--|----x--------------------
------------------------|-------------------------|------------------------|------------------------|-------------------------|------------------------|------------------------|-------------------------|------------------------|-------0-1-2------------|-------0-1-2----0--------|-------0-1-2------------|------------------------|-------------------1--3--|------------------------|----x-----------3----1--|----x--------------------|----x-----------3----1--|
-------------------------|------------------------|-------------------|-------------------------|------------------------|-------------------|-------------------------|------------------------|--1----------------|-------0-1-2----0--------|-------0-1-2------------|-------------------|-------------------1--3--|------------------------|-------------------|----x--------------------|----x-----------3----1--|--4----------------|
-------------------|------------------|------------------|-------------------|------------------|------------------|--3----------------|------------------|------------------|-------------------|------------------|------------------|--1----------------|------------------|------------------|-------------------|------------------|------------------|
----------------------|--------------------|----------------------|----------------------|--------------------|----------------------|----------------------|--1-----------------|----------------------|-------0-1-2----------|---------1----------|-------0-1-2----------|----------------------|--------------------|----------------------|----x-----------------|--4-----------------|----x-----------------|
--------------------|----------------------|--------------------|--------------------|----------------------|--------------------|--1-----------------|----------------------|--1-----------------|---------1----------|-------0-1-2----------|---------1----------|--------------------|----------------------|--------------------|--4-----------------|----x-----------------|--4-----------------|
--------------------|-------------------|--------------------|--------------------|-------------------|--------------------|--1-----------------|-------------------|--------------------|---------1----------|--3----------------|--1-1---------------|--------------------|-------------------|--------------------|--4-----------------|--1----------------|--------------------|
--------------------------|---------------------------|----1---1-----1---1-------|-----1---1-----1---1-------|--------------------------|------------------------1--|------2---------2------3--|-------2---------2---------|-----------------------1--|---------------------------|-----------x--------------|---x--------x-----------4--|
---------------------------|---------------------------|---||-----1---1-----1---1-------|-----1---1/----------------|---||---------------------------|--------------x------------|---||-------2---------2------1--|-------2---------3-3---1-1-|---||---------------------------|-----------------1-1-------|---||---x--------x--------------|---x-----------------------|---||
Well there it is. If you have any questions or comments e-mail me at neveragain1112@hotmail.com
Tap to rate this tab
 
# A B C D E F G H I J K L M N O P Q R S T U V W X Y Z