Nightwish - Feel For You tab

intro

E||-------------------------|-----------------------|------------------------B||-------------------------|-----------------------|------------------------G||--5----5--5--5--5--5--5--|--5--5----5--5----5----|-5--5--5--5--5--5--5--5-D||--5----5--5--5--5--5--5--|--5--5----5--5----5----|-5--5--5--5--5--5--5--5-A||--3----3--3--3--3--3--3--|--3--3----3--3----3----|-3--3--3--3--3--3--3--3-E||-------------------------|-----------------------|------------------------
-----------------------|-------------------------|--------------------------|-----------------------|-------------------------|--------------------------|--5--5--5--5----5------|-------------------------|--------------------------|--5--5--5--5----5------|--6----6--6--6--6--6--6--|--6--6--6--6--6--6--6--6--|--3--3--3--3----3------|--6----6--6--6--6--6--6--|--6--6--6--6--6--6--6--6--|-----------------------|--4----4--4--4--4--4--4--|--4--4--4--4--4--4--4--4--|
-----------------------|-----------------------|---------|---------|-----------------------|-----------------------|---------|---------|-----------------------|-----------------------|--5------|---------|-----------------------|-----------------------|--5------|---------|--8------6--8----6--5--|--6-----5--6--8--------|--3------|---------|-----------------------|-----8-----------------|---------|---------| Fade out2nd verse
|-------------------|-------------------||-------------------|-------------------||-------------------|-------------------||-------------------|-------------------||--3----------------|--5-----------6----||-------------------|-------------------|
-------------------|---------------------|----------------|-------------------|---------------------|----------------|-------------------|---------------------|----------------|--3-----------5----|---------------------|--3-------------|-------------------|--6----5--3----------|-----------6----|-------------------|---------------------|----------------|
-------------------|-------------------|-------------------|-------------------|-------------------|-------------------|-------------------|-------------------|-------------------|-------------------|--------------3----|-------------------|--5----------------|--6----------------|--5----------------|-------------------|-------------------|-------------------|
----------------------|----------------------|----------------------|----------------------|----------------------|----------------------|------5----3----5---\-|------8----7----5---\-|------5----3----5---\-|----------------------|----------------------|----------------------|----------------------|----------------------|----------------------|----------------------|----------------------|----------------------|
----------------------|---------------------|----------------------|----------------------|-----------4---------|----------------------|------8----7----5---\-|------5---------8----|--7----8----7----5----|----------------------|---------------------|----------------------|----------------------|---------------------|----------------------|----------------------|---------------------|----------------------|
-------------------|--------------------|------------------|-------------------|--------------------|------------------|--8----------------|--10----------------|------------------|--8----------------|--8-----------------|------------------|-------------------|--------------------|------------------|-------------------|--------------------|------------------|
part B
|--------------------|-------------------|-------------------||--------------------|-------------------|-------------------||*-------------------|--5----------------|--8----------------||*--3----------------|--5----------------|--8----------------||---3----------------|--3----------------|--6----------------||---1----------------|-------------------|-------------------|
--------------------|-------------------|-------------------|-----------------------------------|-------------------|-------------------|----------------|-------------------|-------------------|--8----------------|----------------|--8----------------|--3----------------|--8----------------|-8--------------|--8----------------|--3----------------|--6----------------|-8--------------|--6----------------|--1----------------|-------------------|-6--------------|
--------------------|--------------------|--6----------------*|--6----------------*|--4-----------------|--------------------|
part C
|--------|--------|--------|--------|--------|--------|--------|--------||--------|--------|--------|--------|--------|--------|--------|--------||5-------|--------|--------|--------|--------|--------|--------|--------||5-------|--------|--------|--------|--------|--------|--------|--------||3-------|--------|--------|--------|--------|--------|--------|--------||3-------|--------|--------|--------|--------|--------|--------|--------|
|--------|--------|--------|--------|-------------------|-------------------||--------|--------|--------|--------|-------------------|-------------------||--5-----|--------|--------|--------|-------------------|-------------------||--5-----|--------|--------|--------|--3----------------|--8----------------||--3-----|--------|--------|--------|--3----------------|--8----------------||--3-----|--------|--------|--------|--1----------------|--6----------------|
-------------------|-------------------|-------------------|-------------------|--8----------------|-------------------|--8----------------|--8----------------|--6----------------|--8----------------|-------------------|--6----------------|
3rd verse
|---------------------------||---------------------------||*--7--7--7--7--7--7--7--7--||*--7--7--7--7--7--7--7--7--||---5--5--5--5--5--5--5--5--||---------------------------|
--------------------------|--------------------------|--------------------------|--------------------------|--------------------------|--------------------------|--7--7--7--7--7--7--7--7--|--5--5--5--5--5--5--5--5--|--7--7--7--7--7--7--7--7--|--5--5--5--5--5--5--5--5--|--5--5--5--5--5--5--5--5--|--3--3--3--3--3--3--3--3--|
--------------------------|-------------------|-------------------|--------------------------|-------------------|-------------------|--7--7--7--7--7--7--7--7--|-------------------|--5----------------|--7--7--7--7--7--7--7--7--|--5----------------|--5----------------|--5--5--5--5--5--5--5--5--|--5----------------|--3----------------|--------------------------|--3----------------|-------------------|
--------------------|--------------------||-------------------|--------------------|--------------------||-------------------|--10----------------|--5----------------*||--7----------------|--10----------------|--5----------------*||--7----------------|--8-----------------|--3-----------------||--5----------------|--------------------|--------------------||-------------------|
Tap to rate this tab
 
# A B C D E F G H I J K L M N O P Q R S T U V W X Y Z