Nikita Koshkin - The Princes Toys - The Mechanical Monkey tab

CLOCKWORK MONKEY - Nikita Koshkin
(The Mechanical Monkey)

Transcribed by Reiz Evans

  Q=120
  4/4
 
|-----------------|-10-0-----10-0-9-0-10-0---6-0-||-----------------|------------------------------||-----------------|--8--------8---7----8-----4---||-----------------|------------------------------||-----------------|------------------------------||-----------------|------------------------------|
| |
|-----------------|------------------------------||-----------------|------------------------------||-----------------|------------------------------||-----------------|------------------------------||-----------------|------------------------------||-x-x-x-x-x-x-x-x-|----x-x-x----x---x----x-x---x-|
|-7-0---9-0-10-0-9-0---9-0-14-0--||--------------------------------||-5-----7----8---7-----7---12----||--------------------------------||--------------------------------||--------------------------------|
|
|--------------------------------||--------------------------------||--------------------------------||--------------------------------||--------------------------------||---x-x---x----x---x-x---x----x--|
|-13-0---14-0-13-0-----10-0---|---11-0-10-0-8-0---5-0-7-0-8-0--||-----------------------------|--------------------------------||-11-----12---11--------8-----|----9----8---6-----3---5---6----||-----------------------------|--------------------------------||-----------------------------|--------------------------------||-----------------------------|--------------------------------|
|
|-----------------------------|--------------------------------||-----------------------------|--------------------------------||-----------------------------|--------------------------------||-----------------------------|--------------------------------||-----------------------------|--------------------------------||----x-x----x----x-x-x----x-x-|-x----x----x---x-x---x---x---x--|
|---10-0---7-0-9-0-10-0-10-0---|-2------------------0----||------------------------------|-2----------------0------||----8-----5---7----8----8-----|-0--------------0--------||------------------------------|--------------0----------||------------------------------|------------0------------||------------------------------|-1----(1)-1--------------|
|
|------------------------------|-------------------------||------------------------------|-------------------------||------------------------------|-------------------------||------------------------------|-------------------------||------------------------------|-------------------------||-x----x-x---x---x----x----x-x-|-------------------------|
Q=80 4/4 2/4 2/4|-2----------------0--2----------------0--||--5-5-5-|-5-----------------------||-2--------------0----2--------------0----||--------|---4-----6---------------||-0------------0------0------------0------||--1-1-1-|-----3p0---5-----6-------||------------0-------------------0--------||--0-0-0-|-------------4p0---6-----||----------0-------------------0----------||--------|---------------------5p0-||-1--(1)-1------------1--(1)-1------------||--3-3-3-|-------------------------|
<|-------------------------|-------------------------|--------------------------||-------------------------|-------------------------|-------------0h1-3-1-3-4--||-------------------------|-------------------------|-------0-2-3--------------||-7-----------------------|-------------0-1-3-4p0-0-|-1h3-4--------------------||---7---------------------|-------0-2-3-------------|--------------------------||-----6p0-0-0-1p0-0-1p0-0-|-1h3-4-------------------|--------------------------|
|-0-0-0-------------------|-------------------4p3---||---------0-2-3-3-3---0-2-|-3-3-3-4p3-0-3-3-3-----5-||-------------------------|-------------------------||-------------------------|-------------------------||-------------------0-----|-1-----2-----4-----5-----||-0-----2-----3-----------|-------------------------|
|-3-3-3-----0-1-1-1-----0-|-------------------7p6---||---------3-----------3---|-6-6-6-7p6---6-6-6-----8-||-------------------------|-----------7-------------||-3-----------------------|-------------------------||-------------2-----------|-4-----5-----7-----8-----||-------2-----------4-----|-------------------------|
|-4-4-4-----3-------------|-------------------5-6-8-||-------3-----2-2-2---3-2-|-3p2-0-4p3-0-3p2-0-------||-------1-----------------|-------------------------||-5-------1---------------|-------------------------||-------------5-----------|-------2-----3-----5-----||-------------------4-----|-5-----------------------|
|-9-9-9-----8-------------|-------------6p5-0-10-11-13-||-------8-----7-7-7-------|-------4p3-0----------------||---------------------0-2-|-3p2-0----------------------||-------------------------|-------------7--------------||-6-----7-----------------|-------4-----------10-------||---------0---6-----5-----|-3--------------------------|
|-14-14-14------13-------------11-10-|-11p10-8-11p10-8-11p10-8-11p10-8-||----------13------12-12-12----------|---------------------------------||------------------------------------|--9------------------------------||------------------------------------|-----------------11------12------||-11-------13-0----11----------------|---------------------------------||---------------------------10-------|---------------------------------|
|----11-10------------------------|---------------3-2---6-5-||----------12h13-9-------11p10----|---0---3-----------0-----||-^9---------------8p7---------12-|-9---5---5-3-1-----------||-^0-------------------9----------|-------------------------||-^0------------------------------|-------------------------||-^0------------------------------|-------------------------|
|-0-8-10-11-----------------------|---0---------------------||-----------11h14-----------------|-----4---------0---------||-----------------9h10------------|---------2-1-----3-------||----------------------11-------0-|-3-------------------3-2-||-------------------------10h12---|-------1-----3-----------||---------------------------------|-------------------2-----|
|---12-12-12-------------------|-------------------------||------------11-11-11----------|-0-0-0-------------------||---------------------10-10-10-|-----------------------3-||------------------------------|-------3-3-3-----3-1h2---||------------------------------|-------------1h2---------||-0----------------------------|-------------------------|
3/4 11/16|-----------6-----8-6h7-13-8-8-8-8-8-8-||----------8-8-8-8-8-8-8-8-8-||-----4-2h3---6h7----------------------||----------------------------||-1h2----------------------------------||-5-5-5-5--------------------||--------------------------9-----9-----||-4-4-4-4--9-----9-----9-----||--------------------------------------||-4-4-4-4--------------------||--------------------------------------||-4-4-4-4--------------------|
14/16 >|----------8-8-8----------8-8-8-|-------------------5------------||-------------------------------|---------------------4-----6----||-5-5-5-5--------5-5-5-5--------|-5-5-5-5--5-5-5-5------3p0---5--||-4-4-4-4--9-----4-4-4-4--9-----|-4-4-4-4--4-4-4-4---------------||-4-4-4-4--------4-4-4-4--------|-4-4-4-4--4-4-4-4---------------||-4-4-4-4--------4-4-4-4--------|-4-4-4-4--4-4-4-4---------------|
2/4|-------------------------|---------|---------||-------------------------|---------|---------||-----6-------------------|---------|---------||-4p0---6-----7-----------|---------|-----1---||---------5p0---7---------|---------|-1-----1-||-----------------6p0-0-0-|-0-2-3-0-|---5-----|
> >|---------|------------|-0-0-0-----------|---------||---------|----------0-|-----------1-1-1-|---------||---------|------------|-----------------|---------||---------|------------|-3---------------|-----2---||-2-------|---2-4-5----|---------2-------|-4-5-----||---3-4-1-|-5----------|-------2---4-----|-------5-|
> > > > > > >|-9-9-9-----3-3-3-|-4---6-6-6---|--------8-8-8----------|-------------||-----------------|-------------|-0-0-0-----------0-0-0-|-------6-6-6-||-----------------|-------------|-----------------------|-------------||-----------------|-----------6-|-8-----11-----10-8-----|-7-5-4-------||-6-----8---1-----|-0---4-------|-----------------------|-------7-----||---------0-------|---3---------|-----------------------|-------------|
>|-------------|-------------|---------|-2-2-2-------2-2-2--------||-------------|-3-3-3-------|---------|-------2-2-2-------2-2-2--||---------4-5-|-------------|---------|--------------------------||-------------|-1-----------|---------|--------------------------||---2-3-5-----|---------1---|-2---2---|-2-----------2------------||-4-----------|-------5---3-|---4---4-|-------4-----------4------|
|-----------|-0-0-0-------------|-----------|-8-----(8)-----|-10----(10)------||-(2)-------|-------4-4-4-(4)---|-(4)-------|---12-(12)-----|----13-(13)------||-----------|-------------------|-----------|---------------|-----------------||-----------|-------------------|-----------|---------------|-----------------||--2----2---|-4------------1--3-|--4----1-3-|-0------9--0-9-|--0---------0----||-----4---4-|-------5-----------|-----5-----|---------------|--------11----11-|
4/4|-9-----(9)------|--------|---------||---------------||---13-(13)------|--------|---------||---------------||----------------|--------|---------||---------------||----------------|--1-0---|---------||---------------||-0---------0----|------3-|-1-0-----||---------------||-------11----11-|--------|-----3-2-||---------------|
| |
|----------------|--------|---------||---------------||----------------|--------|---------||---------------||----------------|--------|---------||---------------||----------------|--------|---------||---------------||----------------|--------|---------||---------------||----------------|--------|---------||---x-x-x-x-x-x-|
|---------------------|-6---5---3---2---3-5-||-3---5---7---8---7-5-|-6---5---3---2---3-5-||-2---4---6---7---6-4-|-5---4---2---0---2-4-||-2---4---6---7---6-4-|---------------------||---------------------|---------------------||---------------------|---------------------|
|
|---------------------|---------------------||---------------------|---------------------||---------------------|---------------------||---------------------|---------------------||---------------------|---------------------||-x-x---x-x-x---x-x-x-|-x-x---x-x-x---x-x-x-|
|-8-------------------|---------------------|-----2---3---5---7-9-||-8---7---8---2---3---|-----------------2-3-|-5---2---3---5---7-9-||-7---6---7---1---2-4-|-2---0---2---4---1-2-|-4---0---2---4---6-7-||-----6---7---1---2-4-|-2---0---2---4---1-2-|-4-------------------||-------------------4-|-2---0---2---4-------|---------------------||---------------------|---------------------|---------------------|
|
|---------------------|---------------------|---------------------||---------------------|---------------------|---------------------||---------------------|---------------------|---------------------||---------------------|---------------------|---------------------||---------------------|---------------------|---------------------||-x-x---x-x-x---x-x-x-|-x-x---x-x-x---x-x-x-|-x-x---x-x-x---x-x-x-|
|-10---12---13-(13)-------|-(13)---------------|-----------------------||-10---12---11-(11)-------|-(11)---------------|-------------2---(2)---||--9---11---12-(12)-------|-(12)---------------|-2---4---7---2---(2)---||-------------------------|--------------------|-2---4---6---2---(2)---||-------------------------|---0--------0-------|-2---4---6-------------||-------------------------|--------------------|-----------------------|
|
|-------------------------|--------------------|-----------------------||-------------------------|--------------------|-----------------------||-------------------------|--------------------|-----------------------||-------------------------|--------------------|-----------------------||-------------------------|--------------------|-----------------------||--x-x----x--x---x--x-x-x-|---x--x-x-x-x-x-x-x-|-x-x---x-x-x---x--x--x-|
|-------------------|-----------------------|-------------------||-(2)---------------|-------------2---(2)---|-(2)---------------||-(2)---------------|-2---4---7---2---(2)---|-(2)---------------||-(2)---------------|-2---4---6---2---(2)---|-(2)---------------||--0--------0-------|-2---4---6-------------|--0--------0-------||-------------------|-----------------------|-------------------|
|
|-------------------|-----------------------|-------------------||-------------------|-----------------------|-------------------||-------------------|-----------------------|-------------------||-------------------|-----------------------|-------------------||-------------------|-----------------------|-------------------||--x--x-x-x-x-x-x-x-|-x-x---x-x-x---x--x--x-|--x--x-x-x-x-x-x-x-|
H=H|-----------------|-0---------------|-1---------------||-3---------------|-1---------------|-2---------------||-3---------------|-0---------------|-1---------------||-3---------------|-----------------|-----------------||---------0-------|---------0-------|---------0-------||-----------------|-----------------|-----------------|
|
|-----------------|-----------------|-----------------||-----------------|-----------------|-----------------||-----------------|-----------------|-----------------||-----------------|-----------------|-----------------||-----------------|-----------------|-----------------||-x-x-x-x-x-x-x-x-|-x-x-x-x-x-x-x-x-|-x-x-x-x-x-x-x-x-|
Q=120 5/4 > < <|-------------------||-----------------------------------------------------|||-------------------||o---------------------------------------------------o|||-------------------||-----------------------------------------------------|||-------------------||--9----9----9----9----9----9----9----9----9----9-----|||-0-------0---------||o---------------------------------------------------o|||-------------------||--9----9----9----9----9----9----9----9----9----9-----||
| |
| > < <|-------------------||-----------------------------------------------------|||-------------------||o---------------------------------------------------o|||-------------------||-----------------------------------------------------|||-------------------||----11---11---11---11---11---11---11---11---11---11--|||-------------------||o---------------------------------------------------o|||-x-x-x-x-x-x-x-x---||----11---11---11---11---11---11---11---11---11---11--||
Q=75 2/4 Palm muting-------------------------------||-5-----------------------|-------------------||---4-----6---------------|-------------------||-----3p0---5-----6-------|-------------------||-------------4p0---6-----|-7-----------------||---------------------5p0-|---7---------------||-------------------------|-----6p0-0-0-0-0-0-|
4/4 4/4|-2--------|---------------0--------*||-2--------|-------------0----------*||-0--------|-----------0------------*||----------|---------0--------------*||----------|-------0----------------*||-1--------|-(1)-1------------------*|
*************************************************** * Generated using Power Tab Editor by Brad Larsen * * http://powertab.guitarnetwork.org * ***************************************************
Tap to rate this tab
 
# A B C D E F G H I J K L M N O P Q R S T U V W X Y Z