Nikita Koshkin – The Princes Toys - The Mischievous Prince tab

THE PRINCE'S TOYS - THE PRINCE IS BEING CAPRICIOUS - Nikita Koshkin
(The Mischievous Prince)

Transcribed by Reiz Evans

  Q=80
  3/4

|-10S7--8S3-(3)--|-10S7--8h10-2-(2)--|-8S3-----------|-8S3--------------||-------9S4-(4)--|-------9----3-(3)--|------3S7-(7)--|------3S6-6-(6)---||----------------|-------------------|---------------|------------------||----------------|-------------------|-8S3-----------|-8S3--------------||----------------|-------------------|------3S7-(7)--|------3S6-6-(6)---||----------------|-------------------|---------------|------------------|
|-10-7--8S3-(3)--|-10-7---8h=9S=2--(2)--||----6--9S4-(4)--|----6---9S====3--(3)--||--9-------------|--9-------------------||----------------|----------------------||----------------|----------------------||--0-------------|--0----(0)---(0)-(0)--|
3/4|-8S3-----------|------------------------||-7S2--3S7-(7)--|-------4-5-7-5----------||------1S5-(5)--|-----3---------7-5-(5)--||-8S3-----------|------------------------||------3S7-(7)--|---3--------------------||-0-------------|-4----------------------|
Q=60 3/4 5/4 4/4|------------||---------------||----7-----2--||-3-5-7--5-3-||---------------||----6-----1--||-3---7--4-2-||-5-------------||----5-----0--||-3---6--3-3-||-6-------0-----||-------------||--------5-3-||-5---------1-2-||----7-----2--||------------||---------------||-0-----0-----|
|-(2)--7-----2--|-10p7-8-9-------------4---||-(1)--6-----1--|-----------8----4--3--3---||-(0)--5-----0--|--------------------------||---------------|----------------3-----4---||-(2)--7-----2--|--------------------------||--0------0-----|--0-------(0)--(0)---(0)--|
|-10p7-8-9-----------------|----7-----2--||-----------8----4--3--2---|----6-----1--||----------------------0---|----5-----0--||----------------3---------|-------------||----------------------2---|----7-----2--||--0-------(0)--(0)---(0)--|-0-----0-----|
|-(2)--7-----2--|---------10p=7-8-9---------------||-(1)--6-----1--|--------------------8-------4--3-||-(0)--5-----0--|-7p4-5-6--0-----------------1----||---------------|---------------------------------||-(2)--7-----2--|--------------------6---5--------||--0------0-----|-0-------(0)-------(0)-(0)-(0)---|
|-4-------------10p=7-8-9----------------||--------------------------8-------4--0--||-7p=4---5---6---0-----------------------||----------------------------------------||--------------------------6---5---4-----||-0-(0)-(0)-(0)-(0)-------(0)-(0)-(0)----|
|----7-----2--|----4s=5--4s=5--4s=5-5--7----5---4--||----6-----1--|----3--4--3S=4--3S=4-4--6----4---3--||----5-----0--|----0-----0-----0-------0----0---0--||-------------|------------------------------------||----7-----2--|------------------------------------||-0-----0-----|-0-(0)---(0)---(0)-----(0)--(0)-(0)-|
|----4s=5--4s=5--4s=5-5-10----8---7---||----3S=4--3S=4--3S=4-4--9----7---6---||----0-----0-----0-------0----0---0---||-------------------------------------||-------------------------------------||-0-(0)---(0)---(0)-----(0)--(0)-(0)--|
6/4|-------------------------4p1-2-3-6-5-8-7-10-9-12-11-||-----------------3p0-1-2-3---1----------------------||---------3p0-1-2-3---------------4---6----8---10----||-0-------0------------------------------------------||---2-3-4--------------------------------------------||----------------------------------------------------|
Q=80 4/4 3/4|-12--10-8-7-----|--7---5-3-2----||-------------------------||-10---8-6-5-----|--5---3-1-0----||-------4-5-7-5-----------||-10---8-6-5-----|--5---3-1-0----||-----3---------7-5-(5)---||----------------|---------------||-------------------------||-11---9-7-6-----|--6---4-2-1----||---3---------------------||--------------0-|-(0)-----------||-4-----------------------|
3/4 2/4|------------|--------||-8-9------|-9-8------|-8-9------||-3-5-7--5-3-|--------||-8-9------|-9-8------|-8-9------||-3---7--4-2-|-5------||-7-8------|-8-7------|-7-8------||-4---6--3-3-|-6------||----------|----------|----------||--------5-3-|-5------||----------|----------|----------||------------|--------||----------|----------|----------|
| |
|------------|--------||------^x--|------^x--|------^x--||------------|--------||------^x--|------^x--|------^x--||------------|--------||------^x--|------^x--|------^x--||------------|--------||------^x--|------^x--|------^x--||------------|--------||------^x--|------^x--|------^x--||------------|--------||------^x--|------^x--|------^x--|
Q=44|-9-6------|-6-11------|-(11)------|-12\-----|---------|------||-9-6------|-6-11------|-(11)------|-12\-----|---------|------||-7-5------|-5-10------|-(10)------|-11\-----|-8-7-----|------||----------|-----------|-----------|---------|-----7-9-|------||----------|-----------|-----------|---------|---------|-7----||----------|-----------|-----------|---------|---------|------|
| |
|------^x--|-------^x--|-------^x--|---------|---------|------||------^x--|-------^x--|-------^x--|------x--|---------|------||------^x--|-------^x--|-------^x--|---------|---------|------||------^x--|-------^x--|-------^x--|---------|---------|------||------^x--|-------^x--|-------^x--|---------|---------|------||------^x--|-------^x--|-------^x--|---------|---------|------|
Palm muting||---------|------|-^0----*||---------|------|-^0----*||---------|------|-^5----*||---------|------|-^5----*||-6-5-----|------|-^4----*||-----6-7-|-0----|-^0----*|
*************************************************** * Generated using Power Tab Editor by Brad Larsen * * http://powertab.guitarnetwork.org * ***************************************************
Please rate this tab:
x1.0