Nile – Nas Akhu Khan She En Asbiu tab

Band:  Nile
Album: Black Seeds Of Vengeance
Song:  Nas Akhu Khan She En Asbiu

Copyright (c)  (Relapse) (2000)
Version 1.0 - (13/03/05)


.  - palm mute           /  - slide up to
\  - slide down to       ~  - vibrato
h  - hammer on           b  - Bend
p  - pull off            Suffixes for bend
t  - tap                 f  - full bend    h - half bend
ph - pinched harmonic    q  - quarter bend t - tap bend
*  - see comment         ^  - Hold bend    r release bend
x  - Stuccatto           ~  - vibrato bend
,  - slight palm mute    () - ghost note, sustained note
"  - tremolo note        <> - Trill
nh - natural harmonic    .  - (above note) staccato

Notes : It is highly unlikely that this tab can be considered as
        definitive in terms of how the song is actually played.  I
        think I've nailed pretty much all the riffs but the outro
        still bothers me somewhat - it's just too simplistic for
        Nile!  I'm sure there is something else going on but I'm
        fucked if I can decipher it correctly.

        Also, if you want the harmonies you can work them out your
        damn self!  I've done the hard work so it's the least you
        can do!

Tuning: A E A D F# B


Intro:

|---------------------------|------.--------------------||-8/10--10/11--11/15--15\14-|-141517-15-14-14/18--17\15-||---------------------------|---------------------------||---------------------------|---------------------------||---------------------------|---------------------------||---------------------------|---------------------------|
|---------------------------|--------------------------------||-15\14--14\11--11\10--10\8-|-10-11-11p10p8h10-10-10h11p10~~-||---------------------------|--------------------------------||---------------------------|--------------------------------||---------------------------|--------------------------------||---------------------------|--------------------------------|
Riff A:
|------------------|-----------------|-----------------||------------------|-----------------|-----------------||------------------|-----------------|-----------------||------------------|-------------.---|-4-0-3-----------||------------------|---------3-2-5---|-----------------||-0000888877771111-|-1-0-3-4---------|-------0-4-3-0-1-| . . . . . . . . . . . . . .
|----------------|--------------------------------------------------||-------------.--|--------------------------------------------------||---------4-7-3--|--------------------------------------------------||-----4-5--------|----------12h14p12\11-11h12p11\8-8h11p8\7-7h8p7\5-||-5-6------------|--------------------------------------------------||----------------|-00113344-----------------------------------------| ........
Lead 1: Very fast!
|---------------------|---------------------|-----------------------||---------------------|---------------------|-111087111087------7810||-----7810111087-8754-|-------4578-781011108|7------------111087----||--------------------7|643467---------------|-----------------------||-5-------------------|---------------------|-----------------------||---------------------|---------------------|-----------------------| .
|----------------------||-1110871110878754-----||-----------------8754-||----------------------||----------------------||----------------------|
Riff B:
|-----------------|-----------------|-----------------||-----------------|-----------------|-----------------||-----------------|-----------------|-------------5/6-||---------6/7-----|-----------------|-----6/7-----3/4-||-0-0-1-0-4/5-0-0-|-1-0-3-4-3-1-0-0-|-1-0-4/5-0-0-----||-0-0-1-0-----0-0-|-1-0-3-4-3-1-0-0-|-1-0-----0-0-----| . . . . . . . . . . . . . . . . . . _____________________________________________________
|-----------------|-----------------|-----------------||-----------------|-----------------|-----------------||-------------7/8-|-----------------|-----------------||-----6/7-----5/6-|-----------------|-----------------||-0-0-4/5-0-0-----|-0-0-1-0-3-4-3-1-|-0-0-1-0-5-6-8-9-||-0-0-----0-0-----|-0-0-1-0-3-4-3-1-|-0-0-1-0---------|
. . . . . . . . . . . . . . . . . . . . _____________________________ ______________________ 1||------------------------------|----------------------||------------------------------|----------------------||------------------------------|----5/6----5/6----5/6-||-6-7-9-10-12h13p12-109109-----|-00-3/4-00-3/4-00-3/4-||-------------------------1211-|----------------------||------------------------------|----------------------| . . . . .. .. .. _________________________________________________________
|-----------------|------------------|--------------------||-----------------|-9--10--10/15~~~~-|-14-11h14p11\10~~~~-||-----------------|------------------|--------------------||-----------------|------------------|--------------------||-0-0-1-0-3-4-3-1-|------------------|--------------------||-0-0-1-0-3-4-3-1-|------------------|--------------------|
. . . . . . . . _____________________________________ 2||------------------|-------------------||-9--6--9~~~~-6----|-------------------||----------------9-|---7---6---3---2---||------------------|-------------------||------------------|-------------------||------------------|-------------------|
Riff C: _________________ ____________________ 1,3| 2||------------------|------------------|---------------------||------------------|------------------|---------------------||------------------|------------------|---------------------||------------------|------------------|---------------------||---6666--66666666-|-5566668899998866-|-55556666222255-12bh-||-00----00---------|------------------|---------------------| .. ..
Rhy. Fill 1:
|------------------||------------------||------------------||------------------||---6666--66666666-||-00----00---------| .. ..
Lead Fill 1:
|------------------------|---------------------grad----||---------------/20~~~~~-|-18-20-18h20p18\17-17bh------||------------------------|-----------------------------||------------------------|-----------------------------||------------------------|-----------------------------||-0----------------------|-----------------------------|
Riff D: _____________________
|----------------------------|---------------------||----------------------------|---------------------||----------------------------|---------------------||-----------------3h4p3------|-4-6-7p6p4-3-4-6p4p3-||-0-0-1-0-3-4-3-1------5h6p5-|---------------------||-0-0-1-0-3-4-3-1------------|---------------------|
. . . . . . . . . . . . ____________________ _____________________________ 1| 2||---------------------|--------------|---------------||---------------------|--------------|---------------||---------------------|--------------|-/7~~~~~-6-----||---------------------|-467976-13431-|-------------8-||-6-8-9p8p6-5-6-8p6p5-|--------------|---------------||---------------------|--------------|---------------|
. . . . ...... ..... ____________________________________________ 3||---------------------------|-----------------||---------------------------|-----------------||---------------------------|-----------------||-9101213131313-67910101010-|-3467777---------||---------------------------|-----------------||---------------------------|---------0134444-| . . . . . . . ... . . . . ....... .......
Riff E: ________________________________ 1||---------------|-----------------|---------------|-----------------||---------------|-----------------|---------------|-----------------||-6/7\6---------|-----------------|-7/8\7---------|-----------------||---------------|-----------------|---------------|-----------------||-4/5\4-4-3-1-0-|-7-6-4-0-4-3-1-0-|-5/6\5-4-3-1-0-|-7-6-4-0-6/7-0-0-||-------4-3-1-0-|-7-6-4-0-4-3-1-0-|-------4-3-1-0-|-7-6-4-0-6/7-0-0-|
. . . . . . . . . . . . . . . . . . . . . . ______________________________ 2||---------------|---------------||---------------|---------------||-7/8\7---------|---------------||---------------|-/3-----/3-----||-5/6\5-4-3-1-0-|----0-0----0---||-------4-3-1-0-|-/3-0-0-/3-0---| . . . . . .
Riff F: ________________ ________________ 1,3,5||-----------------|-----------------|----------------||-----------------|-----------------|----------------||-----------------|-----------------|-7----8----8/11-||---------7/8-----|-----------------|----------------||-4-3-1-0-5/6-0-0-|-4-3-1-0-4-3-1-0-|----------------||-4-3-1-0-----0-0-|-4-3-1-0-4-3-1-0-|----------------|
. . . . . . . . . . . . . . _________________ __________________ 2| (Gtr1) 4||------------------|-------------------||------------------|-------------ph----||-~~~~~-10h11p10\7-|------------(12bh)-||------------------|-777777776666------||------------------|-------------8888--||------------------|-------------------|
___________________________________________________________________
|---------------------------------|---------------------------------||---------------------------------|---------------------------------||12121212121212121414141415151515-|17171414141414141414131313131010-||---------------------------------|---------------------------------||---------------------------------|---------------------------------||---------------------------------|---------------------------------|
___________________ 6||--------------------||--------------------||-101099996666666666-||--------------------||--------------------||--------------------|
Rhy. Fill 2:
|---------------------------------|--------------------------||---------------------------------|--------------------------||---------------------------------|--------------------------||12121212121212121212121212121212-|-111111111111111188888888-||---------------------------------|--------------------------||---------------------------------|--------------------------|
|------------------|------------------||------------------|------------------||------------------|------------------||-7777777744444444-|-4444444444444444-||------------------|------------------||------------------|------------------|
Outro 1:
|---------------|----------------|---------------|----------------||---------------|----------------|---------------|----------------||---------------|-5bq----------r-|-~~~~~~~~~~~~~-|-5bq----------r-||-5-------------|----------------|---------------|----------------||-3-------------|-5bq----------r-|-~~~~~~~~~~~~~-|-3bq----------r-||---------------|----------------|---------------|----------------|
|----------------------|------------------------------||----------------------|------------------------------||----------------------|------------------------------||----------------------|------------------------------||----------------------|------------------------------||-88888888888810101010-|-1111111111111111101010108888-| ............ . . . . . . . . . . . . . . . .....
|----------------|----------------------------------||----------------|----------------------------------||-5bq----------r-|-10101010101010101010101012121212-||----------------|--8-8-8-8-8-8-8-8-8-8-8-810101010-||-5bq----------r-|----------------------------------||----------------|----------------------------------|
|----------------------------------|----------------||----------------------------------|----------------||-13131313131313131515151515151515-|-5bq----------r-||-11111111111111111313131313131313-|----------------||----------------------------------|-3bq----------r-||----------------------------------|----------------|
|----------------------|----------------------------------||----------------------|----------------------------------||----------------------|----------------------------------||----------------------|----------------------------------||----------------------|----------------------------------||-88888888888810101010-|-11111111111111111313131313131313-| ............ . . . . . . . . . . . . . . . . . . . .
Outro 2:
|----------------|----------------|----------------|----------------||----------------|----------------|----------------|----------------||----------------|----------------|----------------|----------------||----------------|----------------|----------------|----------------||----------------|----------------|----------------|----------------||4444444444444444|4444444433333333|1111111111111111|1111111111111111| ................ ................ ................ ................
|----------------|----------------|----------------|----------------||----------------|----------------|----------------|----------------||----------------|----------------|----------------|----------------||----------------|----------------|----------------|----------------||----------------|----------------|----------------|----------------||3333333366666666|4444444444444444|4444444433333333|1111111177777777| ................ ................ ................ ................
|----------------|----------------||----------------|----------------||----------------|----------------||----------------|----------------||----------------|----------------||7777777777777777|6666666633333333| ................ ................
Outro 3:
|---------------|----------------|---------------|----------------||---------------|----------------|---------------|----------------||---------------|----------------|---------------|----------------||-0-------------|----------------|---------------|----------------||-0-------------|----------------|---------------|----------------||-0-------------|----------------|---------------|----------------|
|---------------|----------------|---------------|----------------||-/9------------|----------------|---------------|----------------||-/8------------|----------------|---------------|----------------||-/6------------|----------------|---------------|----------------||-/6------------|----------------|---------------|----------------||-/6------------|----------------|---------------|----------------|
Song Structure: Intro Riff A Lead 1 Riff B Riff C Rhy. Fill 1 Lead Fill 1 Riff D Riff E [Break for approximately 25 seconds] Riff F Riff C Rhy. Fill 1 Lead 1 Rhy. Fill 2 Outro 1 Outro 2 Outro 3
Please rate this tab:
x1.0