Nile - Ii Invocation To Seditious Heresy tab

Band:  Nile
Album: In Their darkened Shrines
Song:  II. Invocation To Seditious Heresy



.  - palm mute           /  - slide up to
\  - slide down to       ~  - vibrato
h  - hammer on           b  - Bend
p  - pull off            Suffixes for bend
t  - tap                 f  - full bend    h - half bend
ph - pinched harmonic    q  - quarter bend t - tap bend
*  - see comment         ^  - Hold bend    r release bend
x  - Stuccatto           ~  - vibrato bend
,  - slight palm mute    () - ghost note, sustained note
"  - tremolo note        <> - Trill

Tunning: A E A D F# B


Intro:

|-----------|-----------|-----------|-----------||-----------|-----------|-----------|-----------||-----------|-----------|-----------|-----------||-7---------|-8---------|-5---------|-6---------||-5---------|-6---------|-3---------|-4---------||-----------|-----------|-----------|-----------|
Riff A: ____________________ 1||---------------------|---------------------||---------------------|---------------------||---------------------|---------------------||---------------------|---------------------||------4310------4310-|-4310------4310-7643-||-7643------7643------|------4444-----------|
.... .... .... .... ...._____________________________________________________________ 2||--------------------|--------------------|--------------------||--------------------|--------------------|--------------------||--------------------|--------------------|--------------------||--------------------|--------------------|--------------------||-4431----------3310-|----------4431------|------3310----------||------44444444------|-33333333------4444-|-4444------33333333-| ........ ........ .... .... ........
Riff B:
|--------------------|------------------||--------------------|------------------||--------------------|------------------||--------------------|------------------||------4431----------|------------------||-3333------44444444-|-3333333344444444-| ....
Riff C:
|---------------------------|---------------------------||---------------------------|---------------------------||---------------------------|---------------------------||------------------78787878-|-910910910910--------------||----------9101212----------|--------------11988--------||-10121313------------------|--------------------121099-| . . . . . . . . ........ . .. .. .. . .... . ...
Riff D: (2 guitars) Every note is a 16th in this riff despite the odd spacing (due to ## notes lining up with # notes on the tab lines)
|------------------|--------------------|----------------------||------------------|--------------------|----------------------||------------------|--------------------|----------------------||---------11114433-|---------6666-7-766-|---------6666-7-7-9-9-||------------------|--------------------|----------------------||-00000000---------|-66666666-----------|-00000000-------------|
| ........ | ........ | ........ ||------------------|--------------------|----------------------||---------44447766-|---------9999101099-|---------999910101212-||------------------|--------------------|----------------------||------------------|--------------------|----------------------||------------------|--------------------|----------------------||-00000000---------|-66666666-----------|-00000000-------------| ........ ........ ........
|--------------------------|--------------------------||--------------------------|--------------------------||--------------------------|--------------------------||----------9-9-9-913131212-|---------1212121213131515-||--------------------------|--------------------------||-66666666-----------------|-00000000-----------------|
| ........ | ........ ||--------------------------|--------------------------||---------1212121216161515-|--------------------------||--------------------------|--------------------------||--------------------------|--------------------------||--------------------------|--------------------------||-66666666-----------------|-00000000-0-0-0-0-0-0-0-0-| ........ ........ . . . . . . . .
|------------------|------------------|----------------------||------------------|------------------|----------------------||------------------|------------------|----------------------||---------66667766-|---------66667799-|---------999913131212-||------------------|------------------|----------------------||-66666666---------|-00000000---------|-66666666-------------|
| ........ | ........ | ........ ||------------------|------------------|----------------------||------------------|------------------|----------------------||------------------|------------------|----------------------||------------------|------------------|----------------------||------------------|------------------|----------------------||-6666666666666666-|-0000000000000000-|-666666666666-6-6-6-6-| ................ ................ ............ . . . .
|--------------------------||--------------------------||--------------------------||----------9-9-9-913131212-||--------------------------||--------------------------|
| ||--------------------------||---------1212121216161515-||--------------------------||--------------------------||--------------------------||--------------------------|
Riff E: __________________
|-------------------|-------------------|------------------||-------------------|-------------------|------------------||-5--------6--------|-5--------4--------|------------------||-3--------3--------|-2--------2--------|------------------||-------------------|-------------------|---------33338888-||-----3333-----3333-|-----2222-----2222-|-33336666---------|
.... .... .... .... ................___________________________________ _____________________ 1| 2||------------------|-----------------|----------------------||------------------|-----------------|----------------------||------------------|-----------------|----------------------||------------------|-----------------|------------109767643-||-7777-------------|-444-777-444-333-|------9865------------||-----222222222222-|-444-777-444-333-|-10976----------------| ................ ... ... ... ...
Solo Backing:
|--------------------------|---------------------------------||--------------------------|---------------------------------||--------------------------|---------------------------------||--------------------------|-------------------------2h5p2h5-||------------------2h5p2h5-|-----------------1h4p1h4---------||-66663333-3h6p3h6---------|-3h6p3h6-2h5p2h5-----------------| ........
|-----------------------||-----------------------||-----------------------||-----------------------||-----------------------||-222222222222--5---2---| . .
Solo: x4|-/20-19------1619-|-201916-161513-151312-|-/15--16--15------15bq-r-||------------------|----------------------|--------------17---------||------------------|----------------------|-------------------------||------------------|----------------------|-------------------------||------------------|----------------------|-------------------------||------------------|----------------------|-------------------------|
x2 x2|13131515161615151313151516161515-|12121313151513131212131315151313-||---------------------------------|---------------------------------||---------------------------------|---------------------------------||---------------------------------|---------------------------------||---------------------------------|---------------------------------||---------------------------------|---------------------------------|
x2 x2|13131515161615151313151516161515-|12121313151513131212131315151313-||---------------------------------|---------------------------------||---------------------------------|---------------------------------||---------------------------------|---------------------------------||---------------------------------|---------------------------------||---------------------------------|---------------------------------|
Lead Fill:
|----------------------|-----------------------||----------------------|-----------------------||----------------------|------------------8754-||----------------------|-------7643-10976------||-----------------7643-|-9865------------------||-4310-7643-10976------|-----------------------|
|---------------------------------||---------------------------------||-111087-17161413-14131110-111087-||---------------------------------||---------------------------------||---------------------------------|
Riff F: __________________ _________________ 1| 2||---------------------|-------------------|------------------||---------------------|-------------------|------------------||---------------------|-------------------|------------------||----------------4310-|-----999--999--666-|-----999------666-||---------------------|-------------------|------------------||-0000-4310-4310------|-0000---00---00----|-0000---000000----|
.... .... .... .... .. .. .... ......_________________ ________________ 3| 4||------------------|-----------------||------------------|-----------------||------------------|-----------------||-----999-------8\-|-----------------||------------------|-444-777-444-333-||-0000---000000----|-444-777-444-333-| .... ...... ... ... ... ...
Outro: (3 guitars)
|----------------|----------------|----------------|----------------||----------------|----------------|----------------|--------------8/||----------------|----------------|----------------|----------------||----------------|----------------|----------------|----------------||----------------|----------------|----------------|----------------||----------------|----------------|----------------|----------------|
| | | | ||----------------|----------------|----------------|----------------||----------------|----------------|----------------|----------------||----------------|--------------7/|/8--------------|--------------5/||-7--------------|----------------|----------------|----------------||-5--------------|----------------|----------------|----------------||----------------|----------------|----------------|----------------|
| | | | ||----------------|----------------|----------------|----------------||----------------|----------------|----------------|----------------||----------------|----------------|----------------|----------------||-7--------------|----------------|-8--------------|----------------||-5--------------|----------------|-6--------------|----------------||----------------|----------------|----------------|----------------|
|----------------|----------------|----------------||/10-------------|-------------10/|/11-------------||----------------|----------------|----------------||----------------|----------------|----------------||----------------|----------------|----------------||----------------|----------------|----------------|
| | | ||----------------|----------------|----------------||----------------|----------------|----------------||/7--------------|--------------7/|/8--------------||----------------|----------------|----------------||----------------|----------------|----------------||----------------|----------------|----------------|
| | | ||----------------|----------------|----------------||----------------|----------------|----------------||----------------|----------------|----------------||-7--------------|----------------|-8--------------||-5--------------|----------------|-6--------------||----------------|----------------|----------------|
|-----------------------|----------------|----------------||-10-10/11-10-8-10-11-4/|/6--------------|--------------6/||-----------------------|----------------|----------------||-----------------------|----------------|----------------||-----------------------|----------------|----------------||-----------------------|----------------|----------------|
| | | ||-----------------------|----------------|----------------||-----------------------|----------------|----------------||--7--7/8--7--5--7--8-5/|/7--------------|--------------7/||-----------------------|----------------|----------------||-----------------------|----------------|----------------||-----------------------|----------------|----------------|
| | | ||-----------------------|----------------|----------------||-----------------------|----------------|----------------||-----------------------|----------------|----------------||-8---------------------|-7--------------|----------------||-6---------------------|-5--------------|----------------||-----------------------|----------------|----------------|
|----------------|-------------------|----------------||/8--------------|-6-6/8-6-4-6-6/8-4/|/6--------------||----------------|-------------------|----------------||----------------|-------------------|----------------||----------------|-------------------|----------------||----------------|-------------------|----------------|
| | | ||----------------|-------------------|----------------||----------------|-------------------|----------------||/8--------------|-7-7/8-7-5-7-7/8-5/|/7--------------||----------------|-------------------|----------------||----------------|-------------------|----------------||----------------|-------------------|----------------|
| | | ||----------------|-------------------|----------------||----------------|-------------------|----------------||----------------|-------------------|----------------||-8--------------|-7-----------------|-7--------------||-6--------------|-5-----------------|-5--------------||----------------|-------------------|----------------|
|----------------|------------------|-------------------||--------------6/|/8----------------|-6-6/8-6-4-6-6/8-4/||----------------|------------------|-------------------||----------------|------------------|-------------------||----------------|------------------|-------------------||----------------|------------------|-------------------|
| | | ||----------------|------------------|-------------------||----------------|------------------|-------------------||--------------7/|/8----------------|-7-7/8-7-5-7-7/8-5/||----------------|------------------|-------------------||----------------|------------------|-------------------||----------------|------------------|-------------------|
| | | ||----------------|------------------|-------------------||----------------|------------------|-------------------||----------------|------------------|-------------------||----------------|-8----------------|-8-----------------||----------------|-6----------------|-6-----------------||----------------|------------------|-------------------|
|------------------|------------------|------------------||/6----------------|---------------10/|/11---------------||------------------|------------------|------------------||------------------|------------------|------------------||------------------|------------------|------------------||------------------|------------------|------------------|
| | | ||------------------|------------------|------------------||------------------|------------------|------------------||/7----------------|----------------7/|/8----------------||------------------|------------------|------------------||------------------|------------------|------------------||------------------|------------------|------------------|
| | | ||------------------|------------------|------------------||------------------|------------------|------------------||------------------|------------------|------------------||-7----------------|------------------|-8----------------||-5----------------|------------------|-6----------------||------------------|------------------|------------------|
|-----------------------|-------------------|------------------||-10-10/11-10-8-10-11-8/|/10----------------|---------------10/||-----------------------|-------------------|------------------||-----------------------|-------------------|------------------||-----------------------|-------------------|------------------||-----------------------|-------------------|------------------|
| | | ||-----------------------|-------------------|------------------||-----------------------|-------------------|------------------||--7--7/8--7--5--7--8-5/|/7-----------------|----------------7/||-----------------------|-------------------|------------------||-----------------------|-------------------|------------------||-----------------------|-------------------|------------------|
| | | ||-----------------------|-------------------|------------------||-----------------------|-------------------|------------------||-----------------------|-------------------|------------------||-7---------------------|-7-----------------|------------------||-5---------------------|-5-----------------|------------------||-----------------------|-------------------|------------------|
|-------------------|------------------||/11----------------|------------------||-------------------|------------------||-------------------|------------------||-------------------|------------------||-------------------|------------------|
| | ||-------------------|------------------||-------------------|------------------||/8-----------------|------------------||-------------------|------------------||-------------------|------------------||-------------------|------------------|
| | ||-------------------|------------------||-------------------|------------------||-------------------|------------------||-8-----------------|------------------||-6-----------------|------------------||-------------------|------------------|
OK, now begin the fade while playing bars 9-16 of the outro. Song Structure: Intro x3 Riff A Riff B Riff C x3 Riff D Riff E Solo Backing x4 (w/ Solo) Lead Fill Riff F Riff E (w/ Lead Fill as 2nd ending) Outro Most of the Rhythm parts are hard to hear so if you spot a mistake please let me know. END
Tap to rate this tab
 
# A B C D E F G H I J K L M N O P Q R S T U V W X Y Z