Nirvana - Marijuana tab

Band: Nirvana
Song: Marijuana
Album: Unreleased
Tabbed by -Spiders-
Tuning: D,g,c,f,a,d

SD: Slight Distortion
FB: Feed Back
Pm: Palm mute
/ : Slide up
\ : Slide down
B : Bend
X : Dead note/ Ghost note
Ph: Pinch of harmonics "Note to people whodont know what this is
                        its when u pick and ur thumb kinda hits
                        the string with the pick,and it makes 
                        kind of a harmonic sound"

Intro SD: X2|-----------------||-----------------||---------------0-||-----------------||--0--2---0--2----||-----------------|Pm|...........|
Verse SD:
|--------4--------4-------4------x-x||-----------------5-------5------x-x||-------------------------4------x-x||-----------------------------------||--0--2-----0--2----0--2----0--2----||-----------------------------------| (With a slight bend and vibration on the 2's)
Verse con't SD:
|-------------------------------||--------------x-x--------------||--2--2-2-2--2-x-x-5-5-5-5-5-5--||--2--2-2-2--2-x-x-5-5-5-5-5-5--||--0--0-0-0--0-x-x-3-3-3-3-3-3--||-------------------------------|
Verse SD:
|--------4--------4-------0--------||--------4--------5-------4-------x||-------------------------4-------x||-------------------------3-------x||--0--2-----0--2----0--2-----0--2--||----------------------------------|
Verse con't :
|-------------------------------||--------------x-x--------------||--2--2-2-2--2-x-x-5-5-5-5-5-5--||--2--2-2-2--2-x-x-5-5-5-5-5-5--||--0--0-0-0--0-x-x-3-3-3-3-3-3--||-------------------------------|
Verse SD:
|--------4--------4-------4------x-x||-----------------5--------------x-x||-----------------4--------------x-x||-----------------------------------||--0--2-----0--2----0--2----0--2----||-----------------------------------|
Pre-chorus :
|-------------------------------||--------------x-x--------------||--2--2-2-2--2-x-x-5-5-5-5-5-5--||--2--2-2-2--2-x-x-5-5-5-5-5-5--||--0--0-0-0--0-x-x-3-3-3-3-3-3--||-------------------------------|
Chorus FB:
|-----------------------------||-----------------------------||-----------------------------||-2--4/--2--4/--2--4/--2--4---||-2--4/--2--4/--2--4/--2--4---||-0--2/--0--2/--0--2/--0--2---|
Chorus con't "with feed back":
|-------------------------------||--------------x-x--------------||--2--2-2-2--2-x-x-5-5-5-5-5-5--||--2--2-2-2--2-x-x-5-5-5-5-5-5--||--0--0-0-0--0-x-x-3-3-3-3-3-3--||-------------------------------|
Chorus FB: x2 |-----------------------------||-----------------------------||-----------------------------||-2--4/--2--4/--2--4/--2--4---||-2--4/--2--4/--2--4/--2--4---||-0--2/--0--2/--0--2/--0--2---|
Verse SD:
|-------------------------4------x-x||--------------------------------x-x||--------------------------------x-x||-----------------------------------||--0--2-----0--2----0--2----0--2----||-----------------------------------|
verse Con't SD:
|-------------------------------||--------------x-x--------------||--2--2-2-2--2-x-x-5-5-5-5-5-5--||--2--2-2-2--2-x-x-5-5-5-5-5-5--||--0--0-0-0--0-x-x-3-3-3-3-3-3--||-------------------------------|
Verse SD:
|---------4------------------4---------4---||---------5----------------4-------------4-||------------------------3-----------3-----||------------------------------------------||--0--2-----0--2----0--2--------0--2-------||------------------------------------------|
Pre-Chorus SD:
|-------------------------------||--------------x-x--------------||--2--2-2-2--2-x-x-5-5-5-5-5-5--||--2--2-2-2--2-x-x-5-5-5-5-5-5--||--0--0-0-0--0-x-x-3-3-3-3-3-3--||-------------------------------|
Chorus FB:
|------------------------------||------------------------------||------------------------------||-2--4/--2--4/--2--4/--2--4/---||-2--4/--2--4/--2--4/--2--4/---||-0--2/--0--2/--0--2/--0--2/---|"Okay i dont know how many times he does this,but he kinda stops when david starts singin,then he starts fuckn around with the feedback"
Solo FB "Lots of it": PHPHPHPHPHPHPHPHPH PHPHPHPHPHPHPHPH|----------------------------------------------------------------||--~~~1010101010101~~11B11B11B11B11B11B11B-10-11B11B11B11B11B11B-||----------------------------------------------------------------||----------------------------------------------------------------||----------------------------------------------------------------||----------------------------------------------------------------|
PH |---------------||---10~~~~~~~~~-| Let this ring until feebBack starts gettin |---------------| annoying then stop! and there, theres Marijuana!|---------------| one of the best songs they made, and its easy!|---------------||---------------|
If some of u guys dont have FeedBack, Try putting 2 Distortion Pedals together the make it sound perfect, just remember to kick it up to the max, anyways just send me ur coments and tell me what u guys think! Hating_Everything_@hotmail.com
Tap to rate this tab
 
# A B C D E F G H I J K L M N O P Q R S T U V W X Y Z