Nirvana - Mexican Seafood tab

Nirvana - Mexican Seafood

tune down 1/2 step


Intro...  x2

|-----5---------0----------|------------------------| |-----5--0------0--0-------|------------------------| |--------------------------|------------------------| |--------------------------|------------------------| |-----------------------4--|-4-4-5---4/5/4----------| |--5---------3----------2--|----------------3/5/3---|
|-----5---------0----------|--------------------------| |-----5--0------0--0-------|--------------------------| |--------------------------|--------------------------| |--------------------------|--------------------------| |-----------------------4--|--4--4---5--5^--5--4\2\0--| |--5---------3----------2--|--2--2--------------------|
Verse... x2
P.M.- - - - P.M. - - - |-------------------------|---------------------------| |-------------------------|---------------------------| |-------------------------|---------------------------| |-2-------------------2---|----------------2----------| |-1-----0---1---0-----1---|--0---1---0-----1----------| |-------------------------|----------------------3----|
P.M.- - - - P.M. - - - |-------------------------|----------------------------| |-------------------------|----------------------0-----| |-------------------------|----------------------0-----| |-2-------------------2---|----------------2-----0-----| |-1-----0---1---0-----1---|--0---1---0-----1-----x-----| |-------------------------|----------------------3-----|
Chorus.... x2
|-----5---------0----------|------------------------| |-----5--0------0--0-------|------------------------| |--------------------------|------------------------| |--------------------------|------------------------| |-----------------------4--|-4-4-5---4/5/4----------| |--5---------3----------2--|----------------3/5/3---|
|-----5---------0----------|--------------------------| |-----5--0------0--0-------|--------------------------| |--------------------------|--------------------------| |--------------------------|--------------------------| |-----------------------4--|--4--4---5--5^--5--4\2\0--| |--5---------3----------2--|--2--2--------------------|
Verse... x2
P.M.- - - - P.M. - - - |-------------------------|---------------------------| |-------------------------|---------------------------| |-------------------------|---------------------------| |-2-------------------2---|----------------2----------| |-1-----0---1---0-----1---|--0---1---0-----1----------| |-------------------------|----------------------3----|
P.M.- - - - P.M. - - - |-------------------------|----------------------------| |-------------------------|----------------------0-----| |-------------------------|----------------------0-----| |-2-------------------2---|----------------2-----0-----| |-1-----0---1---0-----1---|--0---1---0-----1-----x-----| |-------------------------|----------------------3-----|
Chorus.... x2
|-----5---------0----------|------------------------| |-----5--0------0--0-------|------------------------| |--------------------------|------------------------| |--------------------------|------------------------| |-----------------------4--|-4-4-5---4/5/4----------| |--5---------3----------2--|----------------3/5/3---|
|-----5---------0----------|--------------------------| |-----5--0------0--0-------|--------------------------| |--------------------------|--------------------------| |--------------------------|--------------------------| |-----------------------4--|--4--4---5--5^--5--4\2\0--| |--5---------3----------2--|--2--2--------------------|
Interlude.... x2
|-------------------------------------------------------------| |------------------------14-------13---12---------------------| |--------11---10---9-----14-------13---12----11---12---0------| |--2-----11---10---9-----14-------13---12----11---12---0------| |--0----------------------------------------------------------| |-------------------------------------------------------------|
|-------------------------------------------------------------| |------------------------/14-------13---12--------------------| |--------11---10---9-----/14-------13---12----11---12---11----| |--2-----11---10---9-----/14-------13---12----11---12---11----| |--0----------------------------------------------------------| |-------------------------------------------------------------|
Interlude continued, second half .... x4
|----------------------------------------------------------------| |----------------------------------------------------------------| |----------------------------------------------------------------| |--------------------------------2--1--0-------------------------| |------------------0--1--2------------------2--1--0--------------| |-0-/-3---4-\-0--------------0-------------------------3^bend----|
Verse... x2
P.M.- - - - P.M. - - - |-------------------------|---------------------------| |-------------------------|---------------------------| |-------------------------|---------------------------| |-2-------------------2---|----------------2----------| |-1-----0---1---0-----1---|--0---1---0-----1----------| |-------------------------|----------------------3----|
P.M.- - - - P.M. - - - |-------------------------|----------------------------| |-------------------------|----------------------0-----| |-------------------------|----------------------0-----| |-2-------------------2---|----------------2-----0-----| |-1-----0---1---0-----1---|--0---1---0-----1-----x-----| |-------------------------|----------------------3-----|
Outro.... x2
|-------------------------|----------------------------| |-------------------------|----------------------------| |-------------------------|----------------------------| |-2-----------------------|----------------------------| |-1----1---0---1---0---1--|--1---0---1---0---1---------| |-------------------------|-----------------------3----|
|-------------------------|----------------------------| |-------------------------|-----------------------0----| |-------------------------|-----------------------0----| |-2-----------------------|-----------------------0----| |-1----1---0---1---0---1--|--1---0---1---0---1----x----| |-------------------------|-----------------------3----|
Finish with this..........
|--------| |---5----| |---3----| |---2----| |--------| |--------|
Tap to rate this tab
 
# A B C D E F G H I J K L M N O P Q R S T U V W X Y Z