Nirvana - All Apoligies tab version 2

#----------------------------------PLEASE NOTE---------------------------------#
#This file is the author's own work and represents their interpretation of the #
#song. You may only use this file for private study, scholarship, or research. #
#------------------------------------------------------------------------------##

                                  ALL APOLOGIES
                             As recorded by Nirvana
                              
Tabbed by:italyguy


Words and Music by Kurt Cobain



Gtr I (Db Ab Db Gb Bb Eb) - 'Untitled'
Tune all down a half step and the low E, which is now an Eb is tuned to Db. 


Intro Moderately 4/4 Gtr I|------------------------|------------------------||------------------------|------------------------||------------------------|------------------------||------------------------|----------10s12-12-10-9-||-9-9-10-9-10s12-12-10-9-|-----10-9---------------||-0----------------------|-0-0----0---------------|
|------------------------|----------------------||------------------------|----------------------||------------------------|----------11-11-9-----||------------------------|--------------0-0-12--||---9-10---10s12-12-10-9-|---9-10-9-------------||-0------0-----0---------|-0------0-------------|
|------------------------|------------------------||------------------------|------------------------||------------------------|------------------------||------------------------|----------10s12-12-10-9-||---9-10---10s12-12-10-9-|---9-10-9-----------0---||-0------0---------------|-0------0---------------|
|------------------------|---------------------|||------------------------|---------------------|||------------------------|----------11-11-9----|||------------------------|------------------12-|||---9-10-9-10s12-12-10-9-|---9-10-9------------|||-0------0---------------|-0------0------------||
Verse|------------------------|--------------------------||------------------------|--------------------------||------------------------|----------------<12>------||------------------------|----------10s12--12--10-9-||---9-10---10s12-12-10-9-|---9-10-9-----------------||-0------0---------------|-0------0-----------------|
|------------------------|--------------------------||------------------------|--------------------------||------------------------|--------------------------||------------------------|----------10s12-12-10-9---||---9-10-9-10s12-12-10-9-|---9-10-9-----------------||-0-0----0-----0---------|-0-0----0-----------0-----|
|-------------------------|--------------------------||-------------------------|--------------------------||-------------------------|--------------------------||-------------------------|------------10s12-12-10-9-||---9-10-9-10s12--12-10-9-|-----9-10-9--------0------||-0------0----------------|--0-------0---------------|
|-------------------------|------------------------------||-------------------------|------------------------------||-------------------------|------------------<12>--------||-------------------------|------------10s12--12--10-9---||-9-9-10---10s12--12-10-9-|-----9-10-9-------------0-----||-0------0-----0----------|--0--0----0-------------------|
|
|-------------------------|--------------------------||-------------------------|--------------------------||-------------------------|--------------------------||-------------------------|------------10s12-12-10-9-||-9-9-10---10s12--12-10-9-|-----9-10-9-----------0---||-0------0-----0----------|--0-------0---------------|
|
|-------------------------|----------------------------||-------------------------|----------------------------||-------------------------|----------------------------||-------------------------|------------10s12-12-10-9---||-9-9-10-9-10s12--12-10-9-|-----9-10-9-----------0-----||-0------0-----0----------|--0--0----0-----------------|
|------------------------|------------------------||------------------------|------------------------||------------------------|------------------------||------------------------|----------10s12-12-10-9-||-9-9-10---10s12-12-10-9-|---9-10-9-----------0---||-0------0-----0---------|-0-0----0---------------|
|------------------------|--------------------------|||------------------------|--------------------------|||------------------------|-------------11-11\-------|||------------------------|-----------------0--------|||---9-10-9-10s12-12-10-9-|---9-10-9-10-----0--0-----|||-0-0----0---------------|-0-0----0-------------5---||
CHORUS or (use 355xxx if only tuned to drop D, not an additional half step down) G In the sun___ in the sun I feel as oneeb|--------------------------------------------------------------|-Bb|--------------------------------------------------------------|-Gb|--------------------------------------------------------------|-Db|-5-5-5-x--5-5-5-5--------5-5-5-x--5-5-5-5--5-5-5--5-5-5-5-----|-Ab|-5-5-5-x--5-5-5-5--------5-5-5-x--5-5-5-5--5-5-5--5-5-5-5-----|-Db|-5-5-5-x--5-5-5-5--------5-5-5-x--5-5-5-5--5-5-5--5-5-5-5-----|-
In the sun_____, In the sun__________eb|--------------------------------------------------------------|-Bb|--------------------------------------------------------------|-Gb|--------------------------------------------------------------|-Db|-5-5-5---5-5-5-5--------5-5-5---5-5-5-5----5-5--5-5-5-5-------|-Ab|-5-5-5---5-5-5-5--------5-5-5---5-5-5-5----5-5--5-5-5-5-------|-Db|-5-5-5---5-5-5-5--------5-5-5---5-5-5-5----5-5--5-5-5-5-------|-
BRIDGE A Married___ Buried___ Married__eb|-0---------------------------|-0---------------------0--------------|-Bb|-2-------------2------------2|-2--2----2-------------2--------------|-Gb|-2----2----2---2----2-------2|-2--2----2-------2-----2---------2--2-|-Db|-2-----------0------2-2---2--|-2------------2--2-----2-------2----2-|-Ab|-0------0---------------0----|-0----------0----------0--0--0--------|-Eb|-----------------------------|--------------------------------------|-
Buriedeb|-0---------------0--0-0-0---0-0-0---0---0---0-----------|-Bb|-2----2-----2----2--2-2-2---2-2-2---2---2---2-----------|-Gb|-2----2---2-2----2--2-2-2---2-2-2---2---2---2-----------|-Db|-2--------2------2--2-2-2---2-2-2---2---2---2-----------|-Ab|-0---------------0--0-0-0---0-0-0---0---0---0-----------|-Eb|--------------------------------------------------------|-
Verse Gtr I|------------------------|------------------------||------------------------|------------------------||------------------------|------------------------||------------------------|----------10s12-12-10-9-||-9-9-10-9-10s12-12-10-9-|---9-10-----------------||-0----------------------|-0------0---------------|
|------------------------|---------------------||------------------------|---------------------||------------------------|----------11-11-9----||------------------------|--------------0---12-||---9-10---10s12-12-10-9-|---9-10--------------||-0------0---------------|-0------0------------|
|------------------------|------------------------||------------------------|------------------------||------------------------|------------------------||------------------------|----------10s12-12-10-9-||---9-10---10s12-12-10-9-|---9-10-9---------------||-0------0---------------|-0------0---------------|
|------------------------|----------------------------||------------------------|----------------------------||------------------------|----------------<12>--------||------------------------|----------10s12--12--10-9---||-----10-9-10s12-12-10-9-|-----10-9-------------------||-0-0----0---------------|-0-0----0-------------------|
|-------------------------|--------------------------||-------------------------|--------------------------||-------------------------|--------------------------||-------------------------|------------10s12-12-10-9-||-9-9-10---10s12--12-10-9-|-----9-10-----------------||-0------0-----0----------|--0-------0---------------|
|-------------------------|----------------------------||-------------------------|----------------------------||-------------------------|------------------12--------||-------------------------|------------------12-10-9---||-9-9-10---10s12--12-12-9-|-------10-9-10s11-----------||-0------0----------------|--0--0----0-----------------|
|-------------------------|---------------------------||-------------------------|---------------------------||-------------------------|---------------------------||-------------------------|------------10s12--12-10-9-||-9-9-10---10s12--12-12-9-|-----9-10-9---------0------||-0------0----------------|--0-------0----------------|
|----------------------------|------------------------|||----------------------------|------------------------|||----------------------------|----------------4-4-----|||------------------<12>------|----------------5-5-----|||----9-10---10s12---12--10-9-|-----9-10-------5-5-----|||--0------0-----0------------|--0-------0-0-0-5-5p0---||
|
CHORUS G In the sun___ in the sun I feel as oneeb|--------------------------------------------------------------|-Bb|--------------------------------------------------------------|-Gb|--------------------------------------------------------------|-Db|-5-5-5-x--5-5-5-5--------5-5-5-x--5-5-5-5--5-5-5--5-5-5-5-----|-Ab|-5-5-5-x--5-5-5-5--------5-5-5-x--5-5-5-5--5-5-5--5-5-5-5-----|-Db|-5-5-5-x--5-5-5-5--------5-5-5-x--5-5-5-5--5-5-5--5-5-5-5-----|-
In the sun_____, In the sun__________eb|--------------------------------------------------------------|-Bb|--------------------------------------------------------------|-Gb|--------------------------------------------------------------|-Db|-5-5-5---5-5-5-5--------5-5-5---5-5-5-5----5-5--5-5-5-5-------|-Ab|-5-5-5---5-5-5-5--------5-5-5---5-5-5-5----5-5--5-5-5-5-------|-Db|-5-5-5---5-5-5-5--------5-5-5---5-5-5-5----5-5--5-5-5-5-------|-
BRIDGE A Married___ Buried___ Married__eb|-0---------------------------|-0---------------------0--------------|-Bb|-2-------------2------------2|-2--2----2-------------2--------------|-Gb|-2----2----2---2----2-------2|-2--2----2-------2-----2---------2--2-|-Db|-2-----------0------2-2---2--|-2------------2--2-----2-------2----2-|-Ab|-0------0---------------0----|-0----------0----------0--0--0--------|-Eb|-----------------------------|--------------------------------------|-
Buriedeb|-0---------------0--0-0-0---0-0-0---0---0---0-----------|-Bb|-2----2-----2----2--2-2-2---2-2-2---2---2---2-----------|-Gb|-2----2---2-2----2--2-2-2---2-2-2---2---2---2-----------|-Db|-2--------2------2--2-2-2---2-2-2---2---2---2-----------|-Ab|-0---------------0--0-0-0---0-0-0---0---0---0-----------|-Eb|--------------------------------------------------------|-
Outro|------------------------|--------------------------||------------------------|--------------------------||------------------------|----------------<12>------||------------------------|----------10s12--12--10-9-||-9-9-10-9-10s12-12-10-9-|---9-10-9-----------------||--------0---------------|-0------0-----------------|
|------------------------|---------------------||------------------------|---------------------||------------------------|----------11-11-9----||------------------------|------------------12-||---9-10---10s12-12-10-9-|---9-10--------------||-0------0---------------|-0------0------------|
|------------------------|------------------------||------------------------|------------------------||------------------------|------------------------||------------------------|----------10s12-12-10-9-||-9-9-10-9-10s12-12-10-9-|-----10-9---------------||-0------0---------------|-0-0----0---------------|
|--------------------------|---------------------||--------------------------|---------------------||--------------------------|----------11-11-9----||----------------<12>------|------------------12-||---9-10---10s12--12--10-9-|---9-10-9------------||-0------0-----------------|-0------0------------|
|------------------------|------------------------||------------------------|------------------------||------------------------|------------------------||------------------------|----------10s12-12-10-9-||-9-9-10-9-10s12-12-10-9-|---9-10-9---------------||-0------------0---------|-0----------------------|
|------------------------|---------------------||------------------------|---------------------||------------------------|----------11-11-9----||------------------------|------------------12-||---9-10-9-10s12-12-10-9-|---9-10--------------||-0------0-----0---------|-0------0------------|
|------------------------|--------------------------||------------------------|--------------------------||------------------------|----------------<12>------||------------------------|----------10s12--12--10-9-||-9-9-10---10s12-12-10-9-|---9-10-9-------------0-0-||-0------0-----0---------|-0------0-----------------|
|------------------------|----------------------------||------------------------|----------------------------||------------------------|----------------------------||------------------------|----------------<12>--------||---9-10---10s12-12-10-9-|---9-10-9-10s12--12--10-9---||-0------0-----0---------|-0------0-----0-------------|
|------------------------|------------------------||------------------------|------------------------||------------------------|------------------------||------------------------|------------------------||---9-10---10s12-12-10-9-|-----10---10s12-12-10-9-||-0------0-------------0-|-0-0----0-----0---------|
All in all is all we all areeb|------------------------------------|Bb|------------------------------------|Gb|------------------------------------|Db|------------------------------------|Ab|-9-------9----9----------9--9--9----|Db|-0---0---0----0---0---0--0-----0----|
All in all is all we all are All in all is all we all areeb|-------------------------------|-------------------------------|Bb|-------------------------------|-------------------------------|Gb|-------------------------------|-------------------------------|Db|-------------------------------|-------------------------------|Ab|-9-----9-------9-----9-------9-|-------9-----9-9-9-9--9--------|Db|-0--0-----0--0----0-----0--0---|-0--0-----0-----------0--0-----|
All in all is all we all are All in all is all we all areeb|-------------------------------|-------------------------------|Bb|-------------------------------|-------------------------------|Gb|-------------------------------|-------------------------------|Db|-------------------------------|-------------------------------|Ab|-------9-----9-------------9---|-------------------------------|Db|-0--0-----0-----0--------0-----|-0-----------------------------|
All in all is all we all are All in all is all we areeb|-------------------------------|-------------------------------|Bb|-------------------------------|-------------------------------|Gb|-------------------------------|-------------------------------|Db|-------------------------------|-------------------------------|Ab|-------------------------------|-------------------------------|Db|-------------------------------|-------------------------------|
All in all is all we all are_____eb|-----------------------------------|Bb|-----------------------------------|Gb|-----------------------------------|Db|-----------------------------------|Ab|-----------------------------------|Db|-----------------------------------|
Duration Legend --------------- W - whole; H - half; Q - quarter; E - 8th; S - 16th; T - 32nd; X - 64th; a - acciaccatura + - note tied to previous; . - note dotted; .. - note double dotted Uncapitalized letters represent notes that are staccato (1/2 duration) Irregular groupings are notated above the duration line Duration letters will always appear directly above the note/fret number it represents the duration for. Duration letters with no fret number below them represent rests. Multi- bar rests are notated in the form Wxn, where n is the number of bars to rest for. Low melody durations appear below the staff Tablature Legend ---------------- h - hammer-on p - pull-off b - bend pb - pre-bend r - bend release (if no number after the r, then release immediately) /\ - slide into or out of (from/to "nowhere") s - legato slide S - shift slide - natural harmonic [n] - artificial harmonic n(n) - tapped harmonic ~ - vibrato tr - trill T - tap TP - trem. picking PM - palm muting \n/ - tremolo bar dip; n = amount to dip \n - tremolo bar down n/ - tremolo bar up /n\ - tremolo bar inverted dip = - hold bend; also acts as connecting device for hammers/pulls <> - volume swell (louder/softer) x - on rhythm slash represents muted slash o - on rhythm slash represents single note slash Misc Legend ----------- | - bar || - double bar ||o - repeat start o|| - repeat end *| - double bar (ending) : - bar (freetime) $ - Segno & - Coda Kurt Cobain 1967-1994
Tap to rate this tab
 
# A B C D E F G H I J K L M N O P Q R S T U V W X Y Z