Nirvana – In Utero tab ver. 2

Author/Artist: Nirvana
Title: In Utero Album

Legend:

p pull off
h hammer on
/ slide up
\ slide down
b bend
|--| Repeat Previous Bar
p.m. palm mute



Serve The Servant

ス Step Down


|------14------------||-14-------14--\-----||-13-----------------||-12-----------------||--------------------||--------------------|
|---------------------------------------0---0-0---------0---0-0---||------------------------3-----3--------5---5-5---------5---5-5---||-------2-----2-------------------------x---x-x---------x---x-x---||-----1---------0--2-2-2-----2----4-4-x---------0-2-2-x---------0-||-2---------2---------------------4-4-x---------0-2-2-x---------0-||---------------------------------2-2-x---------0-0-0-x---------0-|
|------0--------------------------|--||------5--------------------------|--||------x----------6-6-6-6-6-6-6-6-|--||-7--7----7-7-7-7-6-6-6-6-6-6-6-6-|4x||-7--7----7-7-7-7-4-4-4-4-4-4-4-4-|--||-5--5----5-5-5-5-----------------|--|
|-------------------------------------13------|---------||---------------------------------------------|---------||-----------------5-5-5-5-5-5-5-5-------------|---------||-4-4-4-4-4-4-4-4-5-5-5-5-5-5-5-5-10------10\-|---------||-4-4-4-4-4-4-4-4-5-5-5-5-5-5-5-5-9-----------|---------||-2-2-2-2-2-2-2-2-----------------0-----------|---------| Solo
Scentless Apprentice D Tuning ス Step Down
|-0--0--1-1-1-1-2-2-2-2-3--/--||-0--0--0-0-0-0-0-0-0-0-0-----||-0--0--0-0-0-0-0-0-0-0-0-----||-----------------------------||-----------------------------||-----------------------------| Intro
|-----------------------------|--||-----------------------------|--||-----------------------------|--||-4--4--0-4--0-4-4-4-4-0-4--0-|--||-4--4--0-4--0-4-4-4-4-0-4--0-|--||-4--4--0-4--0-4-4-4-4-0-4--0-|--|
|----------------------------------------------------------------||----------------------------------------------------------------||------------------------------7b8-b8b8b8b8b8b8b8b8b8b8b8b8b8b8b-||-4--4--0-4--0-4-4-4-4-0-4--0------------------------------------||-4--4--0-4--0-4-4-4-4-0-4--0------------------------------------||-4--4--0-4--0-4-4-4-4-0-4--0------------------------------------| Verse Bend 7 up and keep striking
|----------------------------------------------------------------------||----------------------------------------------------------------------||----------------------------------------------------------------------||----------------------------------------------------------------------||-3--3-3-3--3-3-3/5--5-5-5--5-5-5/7--7-7-7--7-7-7/8--8-8-8--8-8-8/10---||----------------------------------------------------------------------|
|------------------------------------------------------------------------------||------------------------------------------------------------------------------||------------------------------------------------------------------------------||------------------------------------------------------------------------------||-10-10-10--10-10-10/12--12-12-12--12/15-15-15-12-12-12-12--12-12-12-12-12-12--||------------------------------------------------------------------------------|
|----|------------|------|-----|-------|-----||----|------------|------|-----|-------|-----||----|------------|------|-----|-------|-----||----|------------|------|-----|-------|-4---||-12-|------------|------|-----|-------|-4---||----|------------|------|-----|-------|-4---| Intro riff Repeat Solo Repeat End
Heart Shaped Box D tuning 1/2 step down
|--------------------------------------------------------------------||--------------------------------------------------------------------||-----2------------------------------2---------------------------0---||---2---2-----3---------0----0-----2---2-----3-----2/4-4---4-----5---||-0---------3---3-----0----0---0-0---------3---3---------0---3-3-3---||---------3-------0----------------------3-------0-------------------| Intro
|-------------------------------------------------------------||-----2---------------------------2---------------------------||-----2---------------------------2---------------------------||---2-2------3--------------4---2-2------3----2/4-4---4-----0-||-0--------3-3------------0---0--------3-3----------0---3-3---||--------3---3--0--0--0-0------------3---3--0-----------------|
|-------------------------------------------------------------|--||-----2---------------------------2---------------------------|--||-----2---------------------------2---------------------------|--||---2-2------3--------------4---2-2------3----2/4-4-4-4-------|--||-0--------3-3------------0---0--------3-3--------------3-3-0-|--||--------3---3--0--0--0-0------------3---3--0-----------------|--|
|--------------------------------------||--------------------------------------||-x-x-4/5b-----4/5b-x---x-x-x-x---4/5b-||-2-2------x-x------2/4-4-4-4-4--------||-0-0------3-3------0---0-0-0-0-3------||----------3-3-------------------------| Chorus
|------------------------------------------------------------------||------------------------------------------------------------------||-----------------------4/5b5b5b5----------------------------------||-x-x-x-x-x-x-x-x-x---------------x-x-x-x-x-x-x-x-x-4-4-4-4--------||-3-3-3-3-3-3-3-3-0---------------3-3-3-3-3-3-3-3-0---------3-3-0--||-3-3-3-3-3-3-3-3-0-0-0-----------3-3-3-3-3-3-3-3-0----------------| Chorus end
|-----------------------------------------------|--|-----------||-----8b9r8p7p5------7b8r7p5--------6-p5-3-1p0--|--|-----------||-----------------------------x--x--------------|--|-2----2----||-7-7-----------5--5----------4--4--------------|2x|-2----2----||-----------------------------3--3--------------|--|-0----0----||-----------------------------------------------|--|-----------| Solo
|----------------||----------------||----------------||--4-4-4-4-------||----------3-3---||----------------| end
Rape Me ス Step Down
|-------------------------------------0--0--------3-3--------------------||-------------------------------------0--0--------0-0-0------------------||-x--x--x--x--2--2--2-x-x-5--5-5------1--1-x-x----0-0-0-2--2--2-x-x-5--5-||-x--x--x--x--2--2--2-x-x-5--5-5-0-2--2--2-x-x-0--0-0-0-2--2--2-x-x-5--5-||-x--x--x--x--0--0--0-x-x-3--3-3-0-2--2--2-x-x-2--2-2---0--0--0-x-x-3--3-||--------------------------------0-0--0--0-----3--3-3--------------------| Intro
|--------0--0-----3--3----||--------0--0-----0--0--0-||-5------1--1-x-x-0--0--0-||-5-0-2--2--2-x-x-0--0--0-||-3-0-2--2--2-x-x-2--2----||---0-0--0--0-----3--3----|
|-------------------------------------------------------------------------||-----2---------------------------------2-------------------------0-------||-------------5-------2---------5-------2-------5-------2---------5-------||-----------5---5-----2---------5-------2-----5---5-----2---------5-------||-0-----0-3-----------2-------5-5---0-----0-3-----------2-------5-----0---||-----------------0------0--3-----0-----------------0------0--3-----0-----| Verse
|------------------------------------------------------------3--3-3-3-3--||---2-------5-------------------------2-----5-5--------------0--0-0-0-0--||---2-------5-------2---------5-------2-----5-5--------------0--0-0-0-0--||---2-----5-5-5-----2---------5-------2-----5-5-----2--2-2-2-0--0-0-0-0--||-----0-3-----------2-------5-5---0-----0-3---------2--2-2-2-2--2-2-2-2--||---------------0------0--3-----0---------------0---0--0-0-0-3--3-3-3-3--|
|-----------------------------------------|--|------------||-----------------------------------------|--|------------||-2---2---2-2-2-5--5----------------------|--|------------||-2---2---2-2-2-5--5--2---2---0--0--0--0--|4x|------------||-0---0---0-0-0-3--3--2---2---2--2--2--2--|--|------------||---------------------0---0---3--0--3--0--|--|------------| Chorus Intro Riff
|-------------------------0--0-----1--1-----|--||-------------5--5--0-----0--0-----0--0--0--|--||-2--2--2-x-x-5--5--0--1--1--1-x-x-0--0--0--|--||-2--2--2-x-x-5--5--0--2--2--2-x-x-0--0--0--|--||-0--0--0-x-x----------2--2--2-x-x-2--2-----|--||-------------------------0--0-----3--3-----|--|
|----------------------------------------||-------------5--5--0--------------------||-2--2--2-x-x-5--5--0--1--1--------------||-2--2--2-x-x-5--5--0--2--2--0--0--0--0--||-0--0--0-x-x----------2--2--2--2--2--2--||----------------------------3--0--3--0--|
|---------------------------------|--||---------------------------------|--||-6-6-6-6-6-6-6-6-2-2-2-2---------|--||-6-6-6-6-6-6-6-6-2-2-2-2---------|4x||-4-4-4-4-4-4-4-4-0-0-0-0---------|--||-------------------------3-2-1-0-|--| Interlude
|-------------------------------------------------------0-----||-------------------------------------------------------------||---------------------------------------------------1---------||-x--x--x--x-x-x-x-x--x--x---x--x--x--x-x-x-x-x--x--2---------||-3--3--3--3-3-3-3-3--3--3---5--5--5--5-5-5-5-5--5--2---------||-1--1--1--1-1-1-1-1--1--1---3--3--3--3-3-3-3-3--3------------|
|-----------------------------------------|----------------------------||-----------------------------------------|--|-------------------------||-2---2---2-5-5-5-5-----------------------|--|-2-----------------------||-2---2---2-5-5-5-5--2---2---2-0-0-0-0----|5x|-2-----------------------||-0---0---0-3-3-3-3--2---2---2-2-2-2-2----|--|-0-----------------------||--------------------0---0---0-3-3-3-3-0--|--|-------------------------| Outro
Frances Farmer Will Have Her Revenge ス Step Down
|-------------------------------------------------------||-------------------------------------------------------||-------------------------------------------------------||-----x-x-x-x-x-x---x-x-x-x-x---x-x-x-x-x-x-x-x---x-x-x-||-----6-6-6-6-6-6---2-2-2-2-3/5-5-5-5-2-2-2-2-3/5-5-5-5-||-3/4-4-4-4-4-4-4-4-0-0-0-0-1/3-3-3-3-0-0-0-0-1/3-3-3-3-| G1 Intro
|-------------------------------------------------------||-------------------------------------------------------||-------------------------------------------------------||-----------------8\4---------------6\4-----------------||-----------------6\2---------------4\2-----------------||-------------------------------------------------------| G2 Intro Pluck strings
|----------------------------------------------------------------------||----------------------------------------------------------------------||-----------------------------------------------------4--4--4-4-4-4-4--||-x-x-x-x-x-x-x-x-x-x-x-x-x---x-x-x-x-x-x-x-x---x-x-x-4--4--4-4-4-4-4--||-6-6-6-6-6-6-6-6-2-2-2-2-3/5-5-5-5-2-2-2-2-3/5-5-5-5-2--2--2-2-2-2-2--||-4-4-4-4-4-4-4-4-0-0-0-0-1/3-3-3-3-0-0-0-0-1/3-3-3-3------------------| Verse when lyrics start leave out slides
|----------------------|--|------------------------------------||----------------------|--|------------------------------------||--4-4-4-4-4-4-4-------|--|-4--4--4-4-4-4-4--4-4-4-4-4-4-4-4-5-||--4-4-4-4-4-4-4-4-4-5-|--|-4--4--4-4-4-4-4--4-4-4-4-4-4-4-4-5-||--2-2-2-2-2-2-2-4-4-5-|--|-2--2--2-2-2-2-2--2-2-2-2-2-2-2-2-3-||----------------2-2-3-|--|------------------------------------| Prechorus
|-----------------------------------------------------------------||-----------------------------------------------------------------||-6-6-6-6-6-6-6-6-9-9-9-9-7-7-7-7-4-4-4-4-4-4-4-4-4-4-4-4-4-4-4-5-||-6-6-6-6-6-6-6-6-9-9-9-9-7-7-7-7-4-4-4-4-4-4-4-4-4-4-4-4-4-4-4-5-||-4-4-4-4-4-4-4-4-7-7-7-7-5-5-5-5-2-2-2-2-2-2-2-2-2-2-2-2-2-2-2-3-||-----------------------------------------------------------------| Chorus
|---------------------------------|---------------------------------|--||---------------------------------|---------------------------------|--||-6-6-6-6-6-6-6-6-9-9-9-9-7-7-7-7-|-4-4-4-4-4-4-4-3-2-2-2-2-2-2-2-3-|--||-6-6-6-6-6-6-6-6-9-9-9-9-7-7-7-7-|-4-4-4-4-4-4-4-3-2-2-2-2-2-2-2-3-|2x||-4-4-4-4-4-4-4-4-7-7-7-7-5-5-5-5-|-2-2-2-2-2-2-2-1-0-0-0-0-0-0-0-1-|--||---------------------------------|---------------------------------|--|
|-----------------------------------||-----------------------------------||-----------------------------------||-5-5-5-5-5-5-5-5-x-x-x-x-x-x-x-----||-5-5-5-5-5-5-5-5-4-4-4-4-4-4-4-----||-3-3-3-3-3-3-3-3-2-2-2-2-2-2-2-2/4-| p.m..............
|-------------------|--|--------------------------------||-------------------|--|--------------------------------||----------9-9-9-9\-|--|-6--6-6-6-6-6-6-7-7-7-7-7-6-4---||-6--6-2---9-9-9-9\-|3x|-6--6-6-6-6-6-6-7-7-7-7-7-6-4-5-||-6--6-2/7-7-7-7-7\-|--|-4--4-4-4-4-4-4-5-5-5-5-5-4-2-5-||-4--4-0------------|--|------------------------------3-| Interlude
|-----------------------------------3---3-------------------||-----------------------------------3---3-------------------||-4--4-4-4-4-4-3-2--2-2-2-2-2-3-----4---4-------------------||-4--4-4-4-4-4-3-2--2-2-2-2-2-3-5-5-------4-4-4-4-4-4-4-----||-2--2-2-2-2-2-1-0--0-0-0-0-0-1-5-5-------4-4-4-4-4-4-4-----||-------------------------------3-3-------2-2-2-2-2-2-2-2/4-|
|------|----------|-----------||------|----------|-----------||------|----------|-----------||------|----------|-x----21---||------|----------|-6----20---||------|----------|-4-/--19---| Verse Chorus Out
Dumb Standard Tuning
|---------------------------------|--||-------------2---------------5---|--||-----2-------2-------5-------5---|--||-----2-----2-2-------5-----5-5---|--||-----2---0---------5-5---3-------|--||-0-----0-------0-3-----0-------0-|--| Verse p.m.
|---------------------------------||-------------2-------------------||-----2-------2-------5-----5-5---||-----2-----2-2-------5-----5-5---||-----2---0---------5-5---3-3-3---||-0-----0-------0-3-----0-------0-| Verse End
|---------------------------------|--||---------------------------------|--||---------------------------------|--||-2---2-2---2-2-0-0---0-0---0-0-0-|--||-2---2-2---2-2-0-x---x-x---x-x-0-|--||-0---0-0---0-0-0-3---3-3---3-3-0-|--| Chorus
------|-----------------------------------|-----------------------------------|------|-----------------------------------|-----------------------------------|------|-----------------------------------|-----------------------------------|------|-2---2-2---2-2-0-0---0-0-----0-0---|-----------------------------------|------|-2---2-2---2-2-0-x---x-x-----x-x---|-----------------------------------|------|-0---0-0---0-0-0-3---3-3-3/6-6-6-0-|-----------------------------------| Chorus End
------|---------------------------------|-------------------------------------|------|-4---4-4---4-4-0-5---5-5---5-5-0-|-------------------------------------|------|-4---4-4---4-4-0-5---5-5---5-5-0-|-------------------------------------|------|-4---4-4---4-4-0-5---5-5---5-5-0-|-------------------------------------|------|---------------------------------|-------------------------------------|------|---------------------------------|-------------------------------------| Interlude p.m.
------|----------------------|------------------------------------------------|------|-4---4-4---4-4-0-5----|------------------------------------------------|------|-4---4-4---4-4-0-5----|------------------------------------------------|------|-4---4-4---4-4-0-5----|------------------------------------------------|------|----------------------|------------------------------------------------|------|----------------------|------------------------------------------------| m
------|---------------------------------|--|----------------------------------|------|---------------------------------|--|----------------------------------|------|---------------------------------|--|----------------------------------|------|-2---2-0-2-2-2-0-0---0-0-5-5-5-0-|--|-2--------------------------------|------|-2---2-0-0-0-0-0-x---x-0-3-3-3-0-|--|-2--------------------------------|------|-0---0-0-0-0-0-0-3---3-0-3-3-3-0-|--|-0--------------------------------| Outro End
Very Ape ス Step Down
-------|-------------------|-------5---------6---|--|-------------------------|-------|-------------------|-------5---------6---|--|-------------------------|-------|-------------------|-------x---------x---|--|-------------------------|-------|-5/7-7-x-5-5/8-8-x-|-5-5/7---x-5-5/8---x-|5x|-------------------------|-------|-5/7-7-x-5-5/8-8-x-|-5-5/7---x-5-5/8---x-|--|-------------------------|-------|-3/5-5-x-3-3/6-6-x-|-3-3/5---x-3-3/6---x-|--|-------------------------| Intro G1
-------|-------------------------------|-15-15/17-17-17-15-15/18-18-18-|------|-------|-------------------------------|-------------------------------|------|-------|-12-12/14-14-14-12-12/15-15-15-|-------------------------------|------|-------|-------------------------------|-------------------------------|------|-------|-------------------------------|-------------------------------|------|-------|-------------------------------|-------------------------------|------| Verse G2 pt 1 pt 2
-------|-----------------------------------------5-5---|----------------------|-------|-----------------------------------------5-5---|----------------------|-------|---------------------------------------4-6-6---|----------------------|-------|-5/7-7-x-5-5/8-8-x-5-5/7-7-x-5-5/8-8-x-5-7-7-x-|----------------------|-------|-5/7-7-x-5-5/8-8-x-5-5/7-7-x-5-5/8-8-x-5-7-7-x-|----------------------|-------|-3/5-5-x-3-3/6-6-x-3-3/5-5-x-3-3/6-6-x---5-5-x-|----------------------| Verse G1 P.M. top 3 strings
-------|-------------------------------------------------------|--------------|-------|-------------------------------------------------------|--------------|-------|-------------------------------------------------------|--------------|-------|-5/7-7-x-5-5/8-8-x-5-5/7-7-x-5-5/8-8-x-x-5--3--x-x-x---|--------------|-------|-5/7-7-x-5-5/8-8-x-5-5/7-7-x-5-5/8-8-x-x-5--3--3-3-2---|--------------|-------|-3/5-5-x-3-3/6-6-x-3-3/5-5-x-3-3/6-6-x-x-3--1--0-0-0-3-|--------------| Midpart G1 P.M. top 3 strings Not P.M......
-------|-------------------------------|--------------------------------------|-------|-----13-16-16-16-/-20-20-20-20-|--------------------------------------|-------|-14----------------------------|--------------------------------------|-------|-------------------------------|--------------------------------------|-------|-------------------------------|--------------------------------------|-------|-------------------------------|--------------------------------------| Chorus G2 Preverse (verse but only top 3)
-------|------------------------------|---------------------------------------|-------|------------------------------|---------------------------------------|-------|----5/8-8-8--x--x--x----------|---------------------------------------|-------|-7--x-x-x-x--12-12-12---------|---------------------------------------|-------|-7--3/6-6-6-/10-10-10---------|---------------------------------------|-------|-5---------------------6-5-3--|---------------------------------------| Chorus G1
Milk It ス Step Down
-----|-12-----------------11--------------------------7--------5--5-----------|-----|-11--11--12-----10--------8----------8---8-7----------6----------6--7-6-|-----|-------------9--------------10--9-9----------------5----------5---------|-----|-----------------------9------------------------------------------------|-----|------------------------------------------------------------------------|-----|------------------------------------------------------------------------| N p.m.... m m p.m.
-------------|----------------------------------------------------------------|-5-4-3-2-----|----------------------------------------------------------------|---------4\--|----------------------------------------------------------------|-------------|----------------------------------------------------------------|-------------|----------------------------------------------------------------|-------------|----------------------------------------------------------------|
-----|--------------------------------------------------|--|---------------|--|-----|--------------------------------------------------|--|---------------|--|-----|----9-9-----------------------------9-9-----------|--|---------------|--|-----|-8--9-9-5-5-6-2-5-5-6-6-2-2-2-8-8-8-9-9-5-5-6-2---|--|-5-5-6-6-2-2-2-|--|-----|-8--7-7-5-5-6-2-5-5-6-6-2-2-2-8-8-8-7-7-5-5-6-2---|--|-5-5-6-6-2-2-2-|--|-----|-6------3-3-4-x-3-3-4-4-x-x-x-6-6-6-----3-3-4-x---|--|-3-3-4-4-x-x-x-|--|
-----|--------------------------------------------------8---------------------|-----|---------------5-5-5-5--------------------------7-----------------------|-----|----------------------------------------------8-------------------------|-----|--------------------------------------------7---------------------------|-----|------------------------------------------------------------------------|-----|-6-----0-----------------5-5-6-6-6-6-6-6-0-----------5-5-6-6-6-6-6-6-0--| p.m.... p.m.......... p.m
---------3----------------------------3\-|-------------------------------|---|-----------------------------------------|-------------------------------|---|------2----------------------------2-----|-------------------------------|---|-----------------------------------------|-------------------------------|4x-|-----------------------------------------|-------------------------------|---|--0-0-------5-5-6-6-6-6-6-6-0--0-0-------|-5-5-6-6-6-6-6-6-0--0-0-0-0-0--|---| Verse
-----|---------------------------------------3--|-------|---------------------|-----|------------------------------------------|-------|---------------------|-----|------------------------------------2-----|-------|---------------------|-----|------------------------------------------|-------|---------------------|-----|------------------------------------------|-------|---------------------|-----|-6-----0-----5-5-6-6-6-6-6-6-0--0-0-------|-------|---------------------| Verse
-----|-------------------------------|---------------------------------|--|---|-----|-------------------------------|---------------------------------|--|---|-----|-------9-9-9-9-----------------|---------9-9-9-9-----------------|--|---|-----|-8-8-8-9-9-9-9-5-5-5-5-2-2-2-2-|-8-8-8-8-9-9-9-9-5-5-5-5-2-2-2-2-|--|---|-----|-8-8-8-7-7-7-7-5-5-5-5-2-2-2-2-|-8-8-8-8-7-7-7-7-5-5-5-5-2-2-2-2-|--|---|-----|-6-6-6---------3-3-3-3-x-x-x-x-|-6-6-6-6---------3-3-3-3-x-x-x-x-|--|---|
--|---------------------------------------------------------------------------|--|---------------------------------------------------------------------------|--|-------------------------------------------------------------------5-5-6/7-|--|---------------------------------------------------------------------------|--|---------------------------------------------------------------------------|--|-6-6-6-6-6-6-6-6-6-6-0-0-0-0-0-0-0-0-5-5-6-6-6-6-6-6-6-6-0-0-0-0-0---------| Solo G1 (Left out G2 part, mess around with all notes for solo)
---------------------------------------------------------------14------13-----|-----------------------------------------------15-14-13-12-11------12------11-|---6-7--6-10-10-10-11-11-11-12--13--14--15--16--------------------------------|------------------------------------------------------------------------------|------------------------------------------------------------------------------|------------------------------------------------------------------------------| p.m...........
---12-------------------------------------------------------------------------|-------7--7/8-5--x-3--x-2-----------------------------------------------------|---------------------------4\-x-1-x-1-x-1-x-2-x-3-x-4-x-5-x-6-7-8-9-10-11-12--|------------------------------------------------------------------------------|------------------------------------------------------------------------------|------------------------------------------------------------------------------| p.m............................................
---------------------------------------------|--------------------------------|----------------------------21-20-19-18------|--------------------------------|-13-14-15-16-17-18-19-20-21-------------0----|--------------------------------|---------------------------------------------|--------------------------------|---------------------------------------------|--------------------------------|---------------------------------------------|--------------------------------| .......................................
Penny Royal Tea ス Step Down
---------|----------------------------------3--3---3---------------|----------|---------|------1--1-1-1------1--1-1-1------0--0---0---------------|----------|---------|-2----2--2-2-2-2----2--2-2-2------0--0---0------0--------|----------|---------|-2----2--2-2-2-2----2--2-2-2-0--0------0---0--0-0--0-0-0-|----------|---------|-0--0----------0--0----------x--x------x---x--x-x--x-x-0-|----------|---------|-----------------------------3--3------3---3--3----3-3-0-|----------| Verse
---------|----------------------------------3-------------------------|-------|---------|------1--1-1-1------1--1-1-1------0--0---0------------------|-------|---------|-2----2--2-2-2-2----2--2-2-2------0--0---0------------------|-------|---------|-2----2--2-2-2-2----2--2-2-2-0--0----0-0-0-0-0-0-0-0-0-0----|-------|---------|-0--0----------0--0----------x--x------x---x-x-x-x-x-x-x----|-------|---------|-----------------------------3--3------3---3-3-3-3-3-3-3/---|-------|
-----|------------------------------------------------------------------|-----|-----|------------------------------------------------------------------|-----|-----|-5-5-5-5-5-5-5-5-5/7-7-7-7-7-7-7----------------------------------|-----|-----|-5-5-5-5-5-5-5-5-5/7-7-7-7-7-7-7--8-8-8-8-8-8-8-8-8-8-8-8-8-------|-----|-----|-3-3-3-3-3-3-3-3-3/5-5-5-5-5-5-5--8-8-8-8-8-8-8-8-8-8-8-8-8-------|-----|-----|----------------------------------6-6-6-6-6-6-6-6-6-6-6-6-6-5-6-5-|-----| Chorus 5 6 Somtimes
-|------------------------------------------------3--3-2-0---------------|---|-|----------------------------------------------0----------3-2-----------|---|-|-2--2-4b5r4p2p0-2b3p0-2--2-4b5r4p2p0-2b3p0-------------------4-2b3r2p0-|---|-|-2--2-----------------2--2-----------------0---------------------------|2x-|-|-0--0-----------------0--0-----------------x---------------------------|---|-|-------------------------------------------3---------------------------|---|
------|----------------|------------------------------------------------------|------|----------------|------------------------------------------------------|------|----------------|------------------------------------------------------|------|----------------|------------------------------------------------------|------|----------------|------------------------------------------------------|------|----------------|------------------------------------------------------| End w/ A Chord
Radio Friendly Unit Shifter ス Step Down
------|---------------------------------|--|----------------------------------|------|---------------------------------|--|----------------------------------|------|-----5-5-x-------4-4-x-----------|--|----------------------------------|------|-7-7-5-5-x-5-5-5-4-4-x-4-4-4-4-4-|--|-7--------------------------------|------|-7-7-3-3-x-5-5-5-2-2-x-4-4-4-4-4-|--|-7--------------------------------|------|-5-5-------3-3-3-------2-2-0-2-0-|--|-5--------------------------------|
------|----------------------------------------------------------------------|------|----------------------------------------------------------------------|------|-5-5-5-5-5-5-5-5-5/9-9-9-9-9-9-9-9------------------------------------|------|-5-5-5-5-5-5-5-5-5/9-9-9-9-9-9-9-9-0-7-7-7-7-7-7-7-7-5-5-5-5-5-5-5-0--|------|-3-3-3-3-3-3-3-3-3/7-7-7-7-7-7-7-7-0-7-7-7-7-7-7-7-7-5-5-5-5-5-5-5-0--|------|-----------------------------------0-5-5-5-5-5-5-5-5-3-3-3-3-3-3-3-0--|
Torette
---------|---------------------------------|----------------------------------|---------|---------------------------------|----------------------------------|---------|---------3-3-3-3-4-4-4-4---------|----------------------------------|---------|-4-4-4-4-3-3-3-3-4-4-4-4-5-5-5-5-|----------------------------------|---------|-4-4-4-4-1-1-1-1-2-2-2-2-5-5-5-5-|----------------------------------|---------|-2-2-2-2-----------------3-3-3-3-|----------------------------------|
---------|-------------------|------------------------------------------------|---------|-------------------|------------------------------------------------|---------|----4-3--4-3h4p3p0-|------------------------------------------------|---------|-4-----------------|------------------------------------------------|---------|-4-----------------|------------------------------------------------|---------|-2-----------------|------------------------------------------------|
All Apologies D Tuning ス Step Down
--------|---------------------------------------------------------------------|--------|---------------------------------------------------------------------|--------|---------------------------------------------------------------------|--------|---------------------------------10/12-12-10-9-----------------------|--------|---9-10-9-10/12-12-10-9-----10-------------------9h10-10---10/12-12--|--------|-0----------------------0-0----0---------------0---------0-0---------| Intro
-----------------------------|------------------------------------------------|-----------------------------|------------------------------------------------|------------------11-11-9----|------------------------------------------------|--------------------------12-|------------------------------------------------|-10-9---9h10-10-9------------|------------------------------------------------|------0---------0------------|------------------------------------------------|
--------|-----------------------------------------------------|---------------|--------|-----------------------------------------------------|---------------|--------|-----------------------------------------------------|---------------|--------|---------------------------------------10/12-12-10-9-|---------------|--------|---9h10-10-9-10/12-12-10-9---9h10-10-9---------------|---------------|--------|-0-------------------------0-------------------------|---------------| Verse 1 & 2
--------|--------------------------------------------------|------------------|--------|--------------------------------------------------|------------------|--------|---------------------------------------11-11-9----|------------------|--------|-----------------------------------------------12-|------------------|--------|---9h10-10-9-10/12-12-10-9---9h10-10-9------------|------------------|--------|-0-------------------------0----------------------|------------------| End 1
--------|------------------------------------------------|--------------------|--------|------------------------------------------------|--------------------|--------|---------------------------------------11--11\--|--------------------|--------|------------------------------------------------|--------------------|--------|---9h10-10-9-10/12-12-10-9---9h10-10-9----------|--------------------|--------|-0-------------------------0--------------------|--------------------| End 2
--------|---------------|--|-----------------------|--------------------------|--------|---------------|--|-----------------------|--------------------------|--------|-4-5-4-4-4-4---|--|-2--------2-------0----|--------------------------|--------|-5-5-5-5-5-5---|--|-2--------2-------0----|--------------------------|--------|-5-5-5-5-5-5---|--|-0--------0-------0----|--------------------------|--------|---------------|--|-----------------------|--------------------------| Prechorus/Chorus
--------|-----------------------------------------------------|---------------|--------|-----------------------------------------------------|---------------|--------|---------------------------------------------11-9----|---------------|--------|---------------------------------------10/12-12---12-|---------------|--------|---9h10-10-9-10/12-12-10-9---9h10-10-9-------x-------|---------------|--------|-0-------------------------0-------------------------|---------------| Verse 2 Mid End
--------|----------------------------|----------------------------------------|--------|----------------------------|----------------------------------------|--------|----------------------------|----------------------------------------|--------|-----------x--x-x-x---------|----------------------------------------|--------|-9--7-5--3-0--0-0-0---------|----------------------------------------|--------|-----------0--0-0-0-5-4-0---|----------------------------------------| Verse 2 End
--------|---------------|--|-------------------------------------------------|--------|---------------|--|--------------------2----------2-----------------|--------|-4-5-4-4-4-4---|--|-2--------2-------------2----------2-2-2-2-------|--------|-5-5-5-5-5-5---|--|-2-------------2--------2---2------2-2-2-2-------|--------|-5-5-5-5-5-5---|--|-0----------------------0----------0-0-0-0-------|--------|---------------|--|-------------------------------------------------| Prechorus/Chorus "Married""Buried" "Married" "Buried"
--------|------------------|---------------------------|-----------|----------|--------|------------------|---------------------------|-----------|----------|--------|------------------|---------------------------|-----------|----------|--------|------------------|---------------------------|-0---------|----------|--------|------------------|---9h10-10-9-10/12-12-10-9-|-5---------|----------|--------|------------------|-0-------------------------|-0---------|----------| Outro Verse w/ End 1 Repeat Out Chord
Please rate this tab:
x1.0