No Bragging Rights - Empire Disarray tab

Song: Empire: Disarray
Artist: No Bragging Rights
Album: Illuminator
Year: 2010
Tuning: Drop C



GUITAR 1



Intro:D||-----------------------|--------------------------|A||-----------------------|--------------------------|F||-----------------------|--7----------11-----------|C||--5---5---5--5----0----|------5---0-------12---0--|G||--3---3---3--3----0----|--------------------------|C||--2---2---2--2----0----|--------------------------|
Verse: PM PM PM PM ----------------------------|-------|----------------------------|-----|----------------------------|-------|----------------------------|-----|----------------------------|-------|----------------------------|-----|----------------------------|-------|----------------------------|-----|--2---2---2-----2--2--2-----|-------|--2---2---2-----2--2--2-----|-----|--2---2---2-----2--2--2-----|-------|--2---2---2-----2--2--2-----|-----|
PM PM PM PM ----------------------------|-----|----------------------------|----------------------------|-----|----------------------------|----------------------------|-----|----------------------------|--5---5---5-----5--5--5-----|-----|----------------------------|--3---3---3-----3--3--3-----|-----|--2---2---2-----2--2--2-----|----------------------------|-----|--2---2---2-----2--2--2-----|
PM PM PM PM PM --------------------------|----------------------------|----------------------|--------------------------|----------------------------|----------------------|--7----------11-----------|----------------------------|----------------------|------5---0-------12---0--|----------------------------|----------------------|--------------------------|--2---2---2-----2--2--2-----|-----------0---0---0--|--------------------------|--2---2---2-----2--2--2-----|-----------0---0---0--|
PM PM ----------------------------|--------------------------|----------------------------|--------------------------|----------------------------|--7----------11-----------|----------------------------|------5---0-------12---0--|--2---2---2-----2--2--2-----|--------------------------|--2---2---2-----2--2--2-----|--------------------------|
PM PM PM PM PM ----------------------------|----------------------|----------------------------|----------------------|----------------------------|----------------------|----------------------------|----------------------|--2---2---2-----2--2--2-----|-----------0---0---0--|--2---2---2-----2--2--2-----|-----------0---0---0--|
PM PM Pre Chorus: ----------------------------|--------------------------|-------------------|----------------------------|--------------------------|-------------------|----------------------------|--7----------11-----------|-------------------|----------------------------|------5---0-------12---0--|-------------------|--2---2---2-----2--2--2-----|--------------------------|--2----------------|--2---2---2-----2--2--2-----|--------------------------|--2----------------|
NH NH NH -------------------|------------------------------------------|-------------------|------------------------------------------|-------------------|--5---------------------------------------|-------------------|------------------------------4------5----|-------------------|------------------------------------------|-------------------|------------------------------------------|
Chorus------------------------|---------------------------|------------------------|---------------------------|--9--9----9--11---------|--9--9----9--11--11----11--|--x--x----x---x---------|--x--x----x---x---x-----x--|--7--7----7---9---------|--7--7----7---9---9-----9--|------------------------|---------------------------|
------------------------------|------------------------------|------------------------------|------------------------------|--12--12----12--12--12----12--|--11--11----11--12--12----12--|---x---x-----x---x---x-----x--|---x---x-----x---x---x-----x--|--10--10----10--10--10----10--|---9---9-----9--10--10----10--|------------------------------|------------------------------|
---------------------------|---------------------------|---------------------------|---------------------------|-----16----11----12----12--|--9--9----9--11--11----11--|------x-----x-----x-----x--|--x--x----x---x---x-----x--|-----14-----9----10----10--|--7--7----7---9---9-----9--|---------------------------|---------------------------|
------------------------------|------------------------------|------------------------------|------------------------------|--12--12----12--12--12----12--|--12--12----12--12--12----12--|---x---x-----x---x---x-----x--|---x---x-----x---x---x-----x--|--10--10----10--10--10----10--|--10--10----10--10--10----10--|------------------------------|------------------------------|
-------------------------------|---------------------------|-------------------------------|---------------------------|--x--x-x-x-x-x-x-11--11----12--|--9--9----9--11--11----11--|--x--x-x-x-x-x-x--x---x-----x--|--x--x----x---x---x-----x--|--x--x-x-x-x-x-x--9---9----10--|--7--7----7---9---9-----9--|-------------------------------|---------------------------|
------------------------------|------------------------------|------------------------------|------------------------------|--12--12----12--12--12----12--|--11--11----11--12--12----12--|---x---x-----x---x---x-----x--|---x---x-----x---x---x-----x--|--10--10----10--10--10----10--|---9---9-----9--10--10----10--|------------------------------|------------------------------|
---------------------------|------------------------|---------------------------|------------------------|-----16----11----12----12--|--9--9----9--9--9----9--|------x-----x-----x-----x--|--x--x----x--x--x----x--|-----14-----9----10----10--|--7--7----7--7--7----7--|---------------------------|------------------------|
------------------------------|------------------------------|------------------------------|------------------------------|--11--11----11--11--11----11--|--12--12----12--12--12----12--|---x---x-----x---x---x-----x--|---x---x-----x---x---x-----x--|---9---9-----9---9---9-----9--|--10--10----10--10--10----10--|------------------------------|------------------------------|
Bridge:------------------------------|-------------------|-------------------|------------------------------|-------------------|-------------------|---x---x---x---x--12--11------|--9----------------|-------------------|---x---x---x---x---x---x------|--x----------------|-------------------|---x---x---x---x--10---9------|--7----------------|-------------------|------------------------------|-------------------|-------------------|
-------------------|--------------------------|-------------------|-------------------|--------------------------|-------------------|-------------------|--------------------------|-------------------|-------------------|--------------10--10--10--|-------------------|-------------------|---------------9---9---9--|--2----------------|-------------------|--------------10--10--10--|--2----------------|
PM PM PM PM PM PM PM PM PM -------------------|--------------------------|------------------------------|-------------------|--------------------------|------------------------------|-------------------|--------------------------|------------------------------|-------------------|--------------------------|------------------------------|-------------------|--7--7--7--7--7--7--7--7--|--7--10--10--10--10--10-------|-------------------|--7--7--7--7--7--7--7--7--|--7--10--10--10--10--10-------|
Verse 2: PM PM PM PM PM PM PM PM -----------------------------------|------------------------------|-----------------------------------|------------------------------|-------------------------------12--|-----11-----------------------|--------------------------------x--|------x-----------10--10--10--|--2----2--2--2--2--2--2--2--2--10--|------9-----7------9---9---9--|--2----2--2--2--2--2--2--2--2------|------------7-----10--10--10--|
PM PM PM PM PM PM PM PM -----------------------------------|------------------------------|-----------------------------------|------------------------------|-------------------------------12--|-----11-----------------------|--------------------------------x--|------x-----------10--10--10--|--2----2--2--2--2--2--2--2--2--10--|------9-----7------9---9---9--|--2----2--2--2--2--2--2--2--2------|------------7-----10--10--10--|
PM PM PM PM PM PM PM PM -----------------------------------|------------------------------|-----------------------------------|------------------------------|-------------------------------12--|-----11-----------------------|--------------------------------x--|------x-----------10--10--10--|--2----2--2--2--2--2--2--2--2--10--|------9-----7------9---9---9--|--2----2--2--2--2--2--2--2--2------|------------7-----10--10--10--|
--------------------------|--------------------------------|--------------------------|--------------------------------|--------------------------|--------------------------------|--9--9--9--9--9--9--9--9--|-----10--10--10-----10--10--10--|--7--7--7--7--7--7--7--7--|------9---9---9------9---9---9--|--7--7--7--7--7--7--7--7--|-----10--10--10-----10--10--10--|
Verse 1: PM PM --------------------------|----------------------------|-------|--------------------------|----------------------------|-------|--7----------11-----------|----------------------------|-------|------5---0-------12---0--|----------------------------|-------|--------------------------|--2---2---2-----2--2--2-----|-------|--------------------------|--2---2---2-----2--2--2-----|-------|
PM PM PM PM ----------------------------|-----|----------------------------|-----|----------------------------|-----|----------------------------|-----|----------------------------|-----|----------------------------|-----|----------------------------|-----|--5---5---5-----5--5--5-----|-----|--2---2---2-----2--2--2-----|-----|--3---3---3-----3--3--3-----|-----|--2---2---2-----2--2--2-----|-----|----------------------------|-----|
PM PM ----------------------------|--------------------------|----------------------------|--------------------------|----------------------------|--7----------11-----------|----------------------------|------5---0-------12---0--|--2---2---2-----2--2--2-----|--------------------------|--2---2---2-----2--2--2-----|--------------------------|
PM PM ----------------------------|-------------------------------|----------------------------|-----7h-8p-7---------------12--|----------------------------|--------------7----------------|----------------------------|-----------------7--9--12------|--2---2---2-----2--2--2-----|-------------------------------|--2---2---2-----2--2--2-----|-------------------------------|
PM PM ----------------------------|--------------------------|----------------------------|--------------------------|----------------------------|--7----------11-----------|----------------------------|------5---0-------12---0--|--2---2---2-----2--2--2-----|--------------------------|--2---2---2-----2--2--2-----|--------------------------|
PM PM ----------------------------|-----------------------------|----------------------------|-----7h-8p-7-----------------|----------------------------|--------------7-----------7--|----------------------------|-----------------7--2--5-----|--2---2---2-----2--2--2-----|-----------------------------|--2---2---2-----2--2--2-----|-----------------------------|
PM PM ----------------------------|--------------------------|----------------------------|--------------------------|----------------------------|--7----------11-----------|----------------------------|------5---0-------12---0--|--2---2---2-----2--2--2-----|--------------------------|--2---2---2-----2--2--2-----|--------------------------|
----------------------------------|------------------------|----------------------------------|------------------------|----------------------------------|--9--9----9--11---------|--x-x-x-x-x-x-x-x-x-x-x-x-x-x-x-x-|--x--x----x---x---------|--x-x-x-x-x-x-x-x-x-x-x-x-x-x-x-x-|--7--7----7---9---------|--x-x-x-x-x-x-x-x-x-x-x-x-x-x-x-x-|------------------------|
Chorus:---------------------------|------------------------------|---------------------------|------------------------------|--9--9----9--11--11----11--|--12--12----12--12--12----12--|--x--x----x---x---x-----x--|---x---x-----x---x---x-----x--|--7--7----7---9---9-----9--|--10--10----10--10--10----10--|---------------------------|------------------------------|
------------------------------|---------------------------|------------------------------|---------------------------|--11--11----11--12--12----12--|-----16----11----12----12--|---x---x-----x---x---x-----x--|------x-----x-----x-----x--|---9---9-----9--10--10----10--|-----14-----9----10----10--|------------------------------|---------------------------|
---------------------------|------------------------------|---------------------------|------------------------------|--9--9----9--11--11----11--|--12--12----12--12--12----12--|--x--x----x---x---x-----x--|---x---x-----x---x---x-----x--|--7--7----7---9---9-----9--|--10--10----10--10--10----10--|---------------------------|------------------------------|
------------------------------|--------------------------------|------------------------------|--------------------------------|--12--12----12--12--12----12--|--x-x-x-x-x-x-x-x-11--11----12--|---x---x-----x---x---x-----x--|--x-x-x-x-x-x-x-x--x---x-----x--|--10--10----10--10--10----10--|--x-x-x-x-x-x-x-x--9---9----10--|------------------------------|--------------------------------|
---------------------------|------------------------------|---------------------------|------------------------------|--9--9----9--11--11----11--|--12--12----12--12--12----12--|--x--x----x---x---x-----x--|---x---x-----x---x---x-----x--|--7--7----7---9---9-----9--|--10--10----10--10--10----10--|---------------------------|------------------------------|
------------------------------|---------------------------|------------------------------|---------------------------|--11--11----11--12--12----12--|-----16----11----12----12--|---x---x-----x---x---x-----x--|------x-----x-----x-----x--|---9---9-----9--10--10----10--|-----14-----9----10----10--|------------------------------|---------------------------|
------------------------|------------------------------|------------------------|------------------------------|--9--9----9--9--9----9--|--11--11----11--11--11----11--|--x--x----x--x--x----x--|---x---x-----x---x---x-----x--|--7--7----7--7--7----7--|---9---9-----9---9---9-----9--|------------------------|------------------------------|
------------------------------|------------------------------|------------------------------|------------------------------|--12--12----12--12--12----12--|---x---x---x---x--12--11------|---x---x-----x---x---x-----x--|---x---x---x---x---x---x------|--10--10----10--10--10----10--|---x---x---x---x--10---9------|------------------------------|------------------------------|
---------------------------|------------------------------|---------------------------|------------------------------|--9--9----9--11--11----11--|--12--12----12--12--12----12--|--x--x----x---x---x-----x--|---x---x-----x---x---x-----x--|--7--7----7---9---9-----9--|--10--10----10--10--10----10--|---------------------------|------------------------------|
------------------------------|---------------------------|------------------------------|---------------------------|--11--11----11--12--12----12--|-----16----11----12----12--|---x---x-----x---x---x-----x--|------x-----x-----x-----x--|---9---9-----9--10--10----10--|-----14-----9----10----10--|------------------------------|---------------------------|
---------------------------|------------------------------|---------------------------|------------------------------|--9--9----9--11--11----11--|--12--12----12--12--12----12--|--x--x----x---x---x-----x--|---x---x-----x---x---x-----x--|--7--7----7---9---9-----9--|--10--10----10--10--10----10--|---------------------------|------------------------------|
------------------------------|------------------------------|------------------------------|------------------------------|--12--12----12--12--12----12--|--x--x--x--x--11--11--11--11--|---x---x-----x---x---x-----x--|--x--x--x--x---x---x---x---x--|--10--10----10--10--10----10--|--x--x--x--x---9---9---9---9--|------------------------------|------------------------------|
---------------------------|------------------------------|---------------------------|------------------------------|--9--9----9--11--11----11--|--12--12----12--12--12----12--|--x--x----x---x---x-----x--|---x---x-----x---x---x-----x--|--7--7----7---9---9-----9--|--10--10----10--10--10----10--|---------------------------|------------------------------|
------------------------------|---------------------------|------------------------------|---------------------------|--11--11----11--12--12----12--|-----16----11----12----12--|---x---x-----x---x---x-----x--|------x-----x-----x-----x--|---9---9-----9--10--10----10--|-----14-----9----10----10--|------------------------------|---------------------------|
------------------------|--------------------------|---------------------------|------------------------|--------------------------|---------------------------|--12------12------12----|------12------12----12----|--16-------16-------16-----|---x-------x-------x----|-------x-------x-----x----|---x--------x--------x-----|--10------10------10----|------10------10----10----|--14-------14-------14-----|------------------------|--------------------------|---------------------------|
Bridge:-------------------------|-------------------|-------------------|-------------------------|-------------------|-------------------|-----16-------16---------|-------------------|-------------------|------x--------x---------|-------------------|-------------------|-----14-------14---------|--2----------------|-------------------|-------------------------|--2----------------|-------------------|
-------------------|-------------------|-------------------|-------------------|-------------------|-------------------|-------------------|-------------------|-------------------|-------------------|-------------------|-------------------|-------------------|-------------------|-------------------|-------------------|-------------------|-------------------|--2----------------|-------------------|-------------------|-------------------|--2----------------|-------------------|
Breakdown:-------------------|--------------------|---------------------|-------------------|--------------------|---------------------|-------------------|--------------------|---------0-----------|-------------------|--------------------|--2-------------4----|-------------------|--------------------|---------------------|-------------------|--------------------|---------------------|
---------------------|---------------------|----------------------|---------------------|---------------------|----------------------|-----0---------------|---------0-----------|-----0-----------0----|---------------------|--2-------------4----|------------2---------|---------------------|---------------------|----------------------|---------------------|---------------------|----------------------|
---------------------|---------------------|---------------------|---------------------|---------------------|---------------------|---------0-----------|-----0---------------|---------0-----------|--2-------------4----|---------------------|--2-------------4----|---------------------|---------------------|---------------------|---------------------|---------------------|---------------------|
PM PM PM PM PM PM ---------------------------|-----------------------------|-----|---------------------------|-----------------------------|-----|-----0---------------------|-----------------------------|-----|---------------------------|-----------------------------|-----|---------------------------|--3-----------3--3--3-----3--|-----|------------0--0--0--5b----|--2-----------2--2--2-----2--|-----|
PM PM PM PM PM PM PM PM PM PM --------------------------------|--------------------------|--------------------------------|--------------------------|--------------------------------|--------------------------|--------------------------------|--------------------------|-----3--3--3-----3-----3-----3--|-----------3--3--3--3-----|-----2--2--2-----2-----2-----2--|-----------2--2--2--2-----|
PM PM PM PM PM PM PM PM PM -----------------------------|-----|--------------------------------|-----------------------------|-----|--------------------------------|-----------------------------|-----|--------------------------------|-----------------------------|-----|--------------------------------|--3-----------3--3--3-----3--|-----|-----3--3--3-----3-----3-----3--|--2-----------2--2--2-----2--|-----|-----2--2--2-----2-----2-----2--|
Outro:-----------------------|--------------------------|-------------------|-----------------------|--------------------------|-------------------|-----------------------|--7----------11-----------|-------------------|-----------------------|------5---0-------12---0--|-------------------|--3---3---3--3----0----|--------------------------|--2----------------|--2---2---2--2----0----|--------------------------|--2----------------|
GUITAR 2
Intro: Verse: PM PM D||-----------------------|-------|----------------------------|-------|A||-----------------------|-------|----------------------------|-------|F||-----------------------|-------|----------------------------|-------|C||--5---5---5--5----0----|-------|----------------------------|-------|G||--3---3---3--3----0----|-------|--2---2---2-----2--2--2-----|-------|C||--2---2---2--2----0----|-------|--2---2---2-----2--2--2-----|-------|
PM PM PM PM ----------------------------|-----|----------------------------|-----|----------------------------|-----|----------------------------|-----|----------------------------|-----|----------------------------|-----|----------------------------|-----|--5---5---5-----5--5--5-----|-----|--2---2---2-----2--2--2-----|-----|--3---3---3-----3--3--3-----|-----|--2---2---2-----2--2--2-----|-----|----------------------------|-----|
PM PM PM PM ----------------------------|-----|----------------------------|----------------------------|-----|----------------------------|----------------------------|-----|----------------------------|----------------------------|-----|----------------------------|--2---2---2-----2--2--2-----|-----|--2---2---2-----2--2--2-----|--2---2---2-----2--2--2-----|-----|--2---2---2-----2--2--2-----|
PM PM PM PM PM ----------------------|----------------------------|-----------------------|----------------------|----------------------------|-----------------------|----------------------|----------------------------|-----------------------|----------------------|----------------------------|--5---5---5--7---------|-----------0---0---0--|--2---2---2-----2--2--2-----|--3---3---3--5----5----|-----------0---0---0--|--2---2---2-----2--2--2-----|------------------5----|
PM PM PM PM PM ----------------------------|----------------------|----------------------------|----------------------|----------------------------|----------------------|----------------------------|----------------------|--2---2---2-----2--2--2-----|-----------0---0---0--|--2---2---2-----2--2--2-----|-----------0---0---0--|
Pre Chorus: PM PM ----------------------------|-----------------------|-------------------|----------------------------|-----------------------|-------------------|----------------------------|-----------------------|-------------------|----------------------------|--5---5---5--7---------|-------------------|--2---2---2-----2--2--2-----|--3---3---3--5----5----|--2----------------|--2---2---2-----2--2--2-----|------------------5----|--2----------------|
Chorus:-------------------|-------|-----------------------|------------------------|-------------------|-------|-----------------------|------------------------|-------------------|-------|--5--5----5--7---------|------------------------|-------------------|-------|--x--x----x--x---------|--5--5----5--5--5----5--|-------------------|-------|--3--3----3--5---------|--3--3----3--3--3----3--|-------------------|-------|-----------------------|------------------------|
------------------------|------------------------|-----------------------|------------------------|------------------------|-----------------------|------------------------|------------------------|-----------------------|--5--5----5--5--5----5--|--7--7----7--7--7----7--|-----7----7----7----7--|--3--3----3--3--3----3--|--5--5----5--5--5----5--|-----5----5----5----5--|------------------------|------------------------|-----------------------|
------------------------|------------------------|------------------------|------------------------|------------------------|------------------------|------------------------|------------------------|------------------------|--5--5----5--5--5----5--|--5--5----5--5--5----5--|------------------------|--3--3----3--3--3----3--|--3--3----3--3--3----3--|--2--2----2--2--2----2--|------------------------|------------------------|--2--2----2--2--2----2--|
----------------------------|------------------------|------------------------|----------------------------|------------------------|------------------------|--x--x-x-x-x-x-x------------|------------------------|------------------------|--x--x-x-x-x-x-x------------|--5--5----5--5--5----5--|--5--5----5--5--5----5--|--x--x-x-x-x-x-x-5--5----5--|--3--3----3--3--3----3--|--3--3----3--3--3----3--|-----------------5--5----5--|------------------------|------------------------|
------------------------|-----------------------|------------------------|------------------------|-----------------------|------------------------|------------------------|-----------------------|------------------------|--7--7----7--7--7----7--|-----7----7----7----7--|--9--9----9--9--9----9--|--5--5----5--5--5----5--|-----5----5----5----5--|--7--7----7--7--7----7--|------------------------|-----------------------|------------------------|
------------------------|------------------------|----------------------------|------------------------|------------------------|----------------------------|------------------------|------------------------|---x---x---x---x------------|--9--9----9--9--9----9--|--9--9----9--9--9----9--|---x---x---x---x--9--7------|--7--7----7--7--7----7--|--7--7----7--7--7----7--|---x---x---x---x--7--5------|------------------------|------------------------|----------------------------|
Bridge: PM PM PM PM PM PM PM PM -----------------------------------|------------------------------|-----------------------------------|------------------------------|-------------------------------12--|-----11-----------------------|--------------------------------x--|------x-----------10--10--10--|--2----2--2--2--2--2--2--2--2--10--|------9-----7------9---9---9--|--2----2--2--2--2--2--2--2--2------|------------7-----10--10--10--|
PM PM PM PM PM PM PM PM -----------------------------------|------------------------------|-----------------------------------|------------------------------|-------------------------------12--|-----11-----------------------|--------------------------------x--|------x-----------10--10--10--|--2----2--2--2--2--2--2--2--2--10--|------9-----7------9---9---9--|--2----2--2--2--2--2--2--2--2------|------------7-----10--10--10--|
PM PM PM PM PM PM PM PM -----------------------------------|------------------------------|-----------------------------------|------------------------------|-------------------------------12--|-----11-----------------------|--------------------------------x--|------x-----------10--10--10--|--2----2--2--2--2--2--2--2--2--10--|------9-----7------9---9---9--|--2----2--2--2--2--2--2--2--2------|------------7-----10--10--10--|
PM PM PM PM PM PM PM PM PM --------------------------|------------------------------|--------------------------|------------------------------|--------------------------|------------------------------|--------------------------|------------------------------|--7--7--7--7--7--7--7--7--|--7--10--10--10--10--10-------|--7--7--7--7--7--7--7--7--|--7--10--10--10--10--10-------|
Verse 2: PM PM PM PM PM PM PM PM -----------------------------------|------------------------------|-----------------------------------|------------------------------|-------------------------------12--|-----11-----------------------|--------------------------------x--|------x-----------10--10--10--|--2----2--2--2--2--2--2--2--2--10--|------9-----7------9---9---9--|--2----2--2--2--2--2--2--2--2------|------------7-----10--10--10--|
PM PM PM PM PM PM PM PM -----------------------------------|------------------------------|-----------------------------------|------------------------------|-------------------------------12--|-----11-----------------------|--------------------------------x--|------x-----------10--10--10--|--2----2--2--2--2--2--2--2--2--10--|------9-----7------9---9---9--|--2----2--2--2--2--2--2--2--2------|------------7-----10--10--10--|
PM PM PM PM PM PM PM PM -----------------------------------|------------------------------|-----------------------------------|------------------------------|-------------------------------12--|-----11-----------------------|--------------------------------x--|------x-----------10--10--10--|--2----2--2--2--2--2--2--2--2--10--|------9-----7------9---9---9--|--2----2--2--2--2--2--2--2--2------|------------7-----10--10--10--|
--------------------------|--------------------------------|-------|--------------------------|--------------------------------|-------|--------------------------|--------------------------------|-------|--9--9--9--9--9--9--9--9--|-----10--10--10-----10--10--10--|-------|--7--7--7--7--7--7--7--7--|------9---9---9------9---9---9--|-------|--7--7--7--7--7--7--7--7--|-----10--10--10-----10--10--10--|-------|
Verse 1: PM PM PM PM ----------------------------|-------|----------------------------|-----|----------------------------|-------|----------------------------|-----|----------------------------|-------|----------------------------|-----|----------------------------|-------|----------------------------|-----|--2---2---2-----2--2--2-----|-------|--2---2---2-----2--2--2-----|-----|--2---2---2-----2--2--2-----|-------|--2---2---2-----2--2--2-----|-----|
PM PM PM PM ----------------------------|-----|----------------------------|-------|----------------------------|-----|----------------------------|-------|----------------------------|-----|----------------------------|-------|--5---5---5-----5--5--5-----|-----|----------------------------|-------|--3---3---3-----3--3--3-----|-----|--2---2---2-----2--2--2-----|-------|----------------------------|-----|--2---2---2-----2--2--2-----|-------|
PM PM PM PM PM ----------------------------|----------------------|----------------------------|----------------------|----------------------------|----------------------|----------------------------|----------------------|--2---2---2-----2--2--2-----|-----------0---0---0--|--2---2---2-----2--2--2-----|-----------0---0---0--|
PM PM ----------------------------|-----------------------|----------------------------|-----------------------|----------------------------|-----------------------|----------------------------|--5---5---5--7---------|--2---2---2-----2--2--2-----|--3---3---3--5----5----|--2---2---2-----2--2--2-----|------------------5----|
PM PM PM PM PM ----------------------------|----------------------|----------------------------|----------------------|----------------------------|----------------------|----------------------------|----------------------|--2---2---2-----2--2--2-----|-----------0---0---0--|--2---2---2-----2--2--2-----|-----------0---0---0--|
PM PM ----------------------------|-----------------------|---------------------|----------------------------|-----------------------|---------------------|----------------------------|-----------------------|---------------------|----------------------------|--5---5---5--7---------|---------------------|--2---2---2-----2--2--2-----|--3---3---3--5----5----|--2------------------|--2---2---2-----2--2--2-----|------------------5----|--2------------------|
Chorus:-----------------------|------------------------|------------------------|-----------------------|------------------------|------------------------|--5--5----5--7---------|------------------------|------------------------|--x--x----x--x---------|--5--5----5--5--5----5--|--5--5----5--5--5----5--|--3--3----3--5---------|--3--3----3--3--3----3--|--3--3----3--3--3----3--|-----------------------|------------------------|------------------------|
------------------------|-----------------------|------------------------|------------------------|-----------------------|------------------------|------------------------|-----------------------|------------------------|--7--7----7--7--7----7--|-----7----7----7----7--|--5--5----5--5--5----5--|--5--5----5--5--5----5--|-----5----5----5----5--|--3--3----3--3--3----3--|------------------------|-----------------------|------------------------|
------------------------|------------------------|-----------------------------|------------------------|------------------------|-----------------------------|------------------------|------------------------|--x-x-x-x-x-x-x-x------------|--5--5----5--5--5----5--|------------------------|--x-x-x-x-x-x-x-x------------|--3--3----3--3--3----3--|--2--2----2--2--2----2--|--x-x-x-x-x-x-x-x-5--5----5--|------------------------|--2--2----2--2--2----2--|------------------5--5----5--|
------------------------|------------------------|------------------------|------------------------|------------------------|------------------------|------------------------|------------------------|------------------------|--5--5----5--5--5----5--|--5--5----5--5--5----5--|--7--7----7--7--7----7--|--3--3----3--3--3----3--|--3--3----3--3--3----3--|--5--5----5--5--5----5--|------------------------|------------------------|------------------------|
-----------------------|------------------------|------------------------|-----------------------|------------------------|------------------------|-----------------------|------------------------|------------------------|-----7----7----7----7--|--9--9----9--9--9----9--|--9--9----9--9--9----9--|-----5----5----5----5--|--7--7----7--7--7----7--|--7--7----7--7--7----7--|-----------------------|------------------------|------------------------|
------------------------|----------------------------|------------------------|----------------------------|------------------------|---x---x---x---x------------|--9--9----9--9--9----9--|---x---x---x---x--9--7------|--7--7----7--7--7----7--|---x---x---x---x--7--5------|------------------------|----------------------------|
--------------------------|--------------------------|--------------------------|--------------------------|--------------------------|--------------------------|--5--5--5--5--5--5--5--5--|--5--5--5--5--5--5--5--5--|--3--3--3--3--3--3--3--3--|--3--3--3--3--3--3--3--3--|--------------------------|--------------------------|
--------------------------|--------------------------|--------------------------|--------------------------|--------------------------|--------------------------|--7--7--7--7--7--7--7--7--|-----7--7--7--7--7--7--7--|--5--5--5--5--5--5--5--5--|-----5--5--5--5--5--5--5--|--------------------------|--------------------------|
--------------------------|--------------------------|--------------------------|--------------------------|--------------------------|--------------------------|--5--5--5--5--5--5--5--5--|--5--5--5--5--5--5--5--5--|--3--3--3--3--3--3--3--3--|--3--3--3--3--3--3--3--3--|--------------------------|--------------------------|
--------------------------|--------------------------|--------------------------|--------------------------|--------------------------|--x--x--x--x--------------|--------------------------|--x--x--x--x--------------|--2--2--2--2--2--2--2--2--|--x--x--x--x--5--5--5--5--|--2--2--2--2--2--2--2--2--|--------------5--5--5--5--|
--------------------------|--------------------------|--------------------------|--------------------------|--------------------------|--------------------------|--5--5--5--5--5--5--5--5--|--5--5--5--5--5--5--5--5--|--3--3--3--3--3--3--3--3--|--3--3--3--3--3--3--3--3--|--------------------------|--------------------------|
--------------------------|--------------------------|---------------------|--------------------------|--------------------------|---------------------|--------------------------|--------------------------|---------------------|--7--7--7--7--7--7--7--7--|-----7--7--7--7--7--7--7--|--5------5------5----|--5--5--5--5--5--5--5--5--|-----5--5--5--5--5--5--5--|--3------3------3----|--------------------------|--------------------------|---------------------|
----------------------|------------------------|-----------------------|----------------------|------------------------|-----------------------|----------------------|------------------------|-----------------------|-----5------5----5----|--7-------7-------7-----|-----7-------7---------|-----3------3----3----|--5-------5-------5-----|-----5-------5---------|----------------------|------------------------|-----------------------|
Bridge:-------------------|-------------------|-------------------|-------------------|-------------------|-------------------|-------------------|-------------------|-------------------|-------------------|-------------------|-------------------|-------------------|-------------------|-------------------|-------------------|--2----------------|-------------------|-------------------|-------------------|--2----------------|-------------------|-------------------|-------------------|
-------------------|-------------------|-------------------|-------------------|-------------------|-------------------|-------------------|-------------------|-------------------|-------------------|-------------------|-------------------|--2----------------|-------------------|-------------------|--2----------------|-------------------|-------------------|
Breakdown: PM PM PM PM PM --------------------|--------------------------------|--------------------|--------------------------------|--------------------|--------------------------------|--------------------|--------------------------------|--------------------|--2-------------2--2--2----2----|--------------------|--2-------------2--2--2----2----|
PM PM PM PM PM PM PM PM PM ---------------------------------------------|---------------------------------------------|---------------------------------------------|---------------------------------------------|-----2--2--2--2--2----2----2----2----2-------|-----2--2--2--2--2----2----2----2----2-------|
PM PM PM PM PM PM PM PM PM ------------------------------------------|------------------------------------------|------------------------------------------|------------------------------------------|-----2--2--2--2--2----2----2----2----2----|-----2--2--2--2--2----2----2----2----2----|
PM PM PM PM PM PM PM PM PM PM PM PM PM PM PM ------------------------------------------|--------------------------------|------------------------------------------|--------------------------------|------------------------------------------|--------------------------------|------------------------------------------|--------------------------------|-----2--2--2--2--2----2----2--2--2--2-----|--2-------------2--2--2----2----|-----2--2--2--2--2----2----2--2--2--2-----|--2-------------2--2--2----2----|
PM PM PM PM PM PM PM PM PM ---------------------------------------------|---------------------------------------------|---------------------------------------------|---------------------------------------------|-----2--2--2--2--2----2----2----2----2-------|-----2--2--2--2--2---2----2----2----2-------|
PM PM PM PM PM PM PM PM PM ------------------------------------------|------------------------------------------|------------------------------------------|------------------------------------------|-----2--2--2--2--2----2----2----2----2----|-----2--2--2--2--2----2----2---2----2----|
PM PM PM PM PM PM PM PM PM PM PM PM ------------------------------------------|-----------------------------|-----|------------------------------------------|-----------------------------|-----|------------------------------------------|-----------------------------|-----|------------------------------------------|-----------------------------|-----|-----2--2--2--2--2----2-------------------|--3-----------3--3--3-----3--|-----|-----2--2--2--2--2----2----0--0--0--5b----|--2-----------2--2--2-----2--|-----|
PM PM PM PM PM PM PM PM PM PM --------------------------------|--------------------------|--------------------------------|--------------------------|--------------------------------|--------------------------|--------------------------------|--------------------------|-----3--3--3-----3-----3-----3--|-----------3--3--3--3-----|-----2--2--2-----2-----2-----2--|-----------2--2--2--2-----|
PM PM PM PM PM PM PM PM PM -----------------------------|-----|--------------------------------|-----------------------------|-----|--------------------------------|-----------------------------|-----|--------------------------------|-----------------------------|-----|--------------------------------|--3-----------3--3--3-----3--|-----|-----3--3--3-----3-----3-----3--|--2-----------2--2--2-----2--|-----|-----2--2--2-----2-----2-----2--|
Outro: -----------------------|-------|-------------------|-------------------|-----------------------|-------|-------------------|-------------------|-----------------------|-------|-------------------|-------------------|-----------------------|-------|-------------------|-------------------|--3---3---3--3----0----|-------|--2----------------|-------------------|--2---2---2--2----0----|-------|--2----------------|-------------------|
Tablature Legend ---------------- PM Palm Mute x - dead note g - grace note (n) - ghost note > - accentuded note NH - natural harmonic PH - pitch harmonic h - hammer on p - pull off b - bend
Tap to rate this tab
 
# A B C D E F G H I J K L M N O P Q R S T U V W X Y Z