No Bragging Rights - Blind Faith tab version 2


Song: Blind Faith
Artist: No Bragging Rights
Album: Illuminator
Year: 2011
Tuning: Drop C



GUITAR 1



Intro:D||--------------------------------------------------|A||--------------------------------------------15-15-|F||--------------------------------------------------|C||--12-12-12-12-12-12-12-12-12-12-12-12-12-12-------|G||--------------------------------------------------|C||--------------------------------------------------|
--------------------------------------------------|--15-15-15-15-15-15-15-15-------------------------|--------------------------14-14-14-14-14-14-14-14-|--------------------------------------------------|--------------------------------------------------|--------------------------------------------------|
--------------------------------------------------|--------------------------------------------------|--15-15-15-15-15-15-15-15-15-15-15-15-15-15-12-12-|--------------------------------------------------|--------------------------------------------------|--------------------------------------------------|
--------------------------------------------------|--------------------------------------------------|--12-12-12-12-12-12-12-12-12-12-14-14-14-14-14-14-|--------------------------------------------------|--------------------------------------------------|--------------------------------------------------|
--------------------------------------------------|--------------------------------------------15-15-|--------------------------------------------------|--12-12-12-12-12-12-12-12-12-12-12-12-12-12-------|--------------------------------------------------|--------------------------------------------------|
--------------------------------------------------|--15-15-15-15-15-15-15-15-------------------------|--------------------------14-14-14-14-14-14-14-14-|--------------------------------------------------|--------------------------------------------------|--------------------------------------------------|
--------------------------------------------------|--------------------------------------------------|--15-15-15-15-15-15-15-15-15-15-15-15-15-15-12-12-|--------------------------------------------------|--------------------------------------------------|--------------------------------------------------|
--------------------------------------------------|--------------------------------------------------|--12-12-12-12-12-12-12-12-12-12-14-14-14-14-14-14-|--------------------------------------------------|--------------------------------------------------|--------------------------------------------------|
--------------------------------------------------|--------------------------------------------15-15-|--------------------------------------------------|--12-12-12-12-12-12-12-12-12-12-12-12-12-12-------|--------------------------------------------------|--------------------------------------------------|
--------------------------------------------------|--15-15-15-15-15-15-15-15-------------------------|--------------------------14-14-14-14-14-14-14-14-|--------------------------------------------------|--------------------------------------------------|--------------------------------------------------|
--------------------------------------------------|--------------------------------------------------|--15-15-15-15-15-15-15-15-15-15-15-15-15-15-12-12-|--------------------------------------------------|--------------------------------------------------|--------------------------------------------------|
--------------------------------------------------|--------------------------------------------------|--12-12-12-12-12-12-12-12-12-12-14-14-14-14-14-14-|--------------------------------------------------|--------------------------------------------------|--------------------------------------------------|
--------------------------------------------------|--------------------------------------------15-15-|--------------------------------------------------|--12-12-12-12-12-12-12-12-12-12-12-12-12-12-------|--------------------------------------------------|--------------------------------------------------|
--------------------------------------------------|--15-15-15-15-15-15-15-15-------------------------|--------------------------14-14-14-14-14-14-14-14-|--------------------------------------------------|--------------------------------------------------|--------------------------------------------------|
--------------------------------------------------|--------------------------------------------------|--15-15-15-15-15-15-15-15-15-15-15-15-15-15-12-12-|--------------------------------------------------|--------------------------------------------------|--------------------------------------------------|
Verse:--------------------------------------------------|-------------------|--------------------------------------------------|-------------------|--12-12-12-12-12-12-12-12-12-12-14-14-14-14-14-14-|-------------------|--------------------------------------------------|-------------------|--------------------------------------------------|--0----------------|--------------------------------------------------|--0----------------|
PM PM PM PM --------------------------------|--------------------------------|--------------------------------|--------------------------------|--1--0--0--0--4--3--0--0--1-----|--1--0--0--0--4--3--0--0--1-----|
PM PM PM PM PM PM PM PM PM PM PM PM PM PM -----------------------------------------------|-----------------------------------------------|-----------------------------------------------|-----------------------------------------------|--0--------------------------------------------|--0--0--0--0--0--0--0--0--0--0--0--0--0--0--0--|
PM PM PM PM --------------------------------|--------------------------------|--------------------------------|-----------------------------8--|-----------------5--------5-----|--8--5--0--0--5-----0--0--------|
PM PM PM PM PM PM PM PM PM PM PM PM PM PM -----------------------------------------------|-----------------------------------------------|-----------------------------------------------|-----------------------------------------------|--0--------------------------------------------|--0--0--0--0--0--0--0--0--0--0--0--0--0--0--0--|
PM PM PMPM PM PM PM ------------------------------------------|--------------10-11-10--------------------|--9-10-9----------------10-10-9--9--------|----------11------------------------11-11-|------------------------------------------|------------------------------------------|
PM PM PM PM PM PM PM PM PM PM PM PM PM PM -----------------------------------------------|-----------------------------------------------|-----------------------------------------------|-----------------------------------------------|--0--------------------------------------------|--0--0--0--0--0--0--0--0--0--0--0--0--0--0--0--|
PM PM PM PM --------------------------------|--------------------------------|--------------------------------|-----------------------------8--|-----------------5--------5-----|--8--5--0--0--5-----0--0--------|
PM PM PM PM PM PM PM PM PM PM PM PM PM PM -----------------------------------------------|-----------------------------------------------|-----------------------------------------------|-----------------------------------------------|--0--------------------------------------------|--0--0--0--0--0--0--0--0--0--0--0--0--0--0--0--|
PM PM PM PM --------------------------------|--------------------------------|--------------------------------|--------------------------------|--1--0--0--0--4--3--0--0--1-----|--1--0--0--0--4--3--0--0--1-----|
PM PM PM PM PM PM PM PM PM PM PM PM PM PM -----------------------------------------------|-----------------------------------------------|-----------------------------------------------|-----------------------------------------------|--0--------------------------------------------|--0--0--0--0--0--0--0--0--0--0--0--0--0--0--0--|
PM PM PM PM --------------------------------|--------------------------------|--------------------------------|-----------------------------8--|-----------------5--------5-----|--8--5--0--0--5-----0--0--------|
PM PM PM PM PM PM PM PM PM PM PM PM PM PM -----------------------------------------------|-----------------------------------------------|-----------------------------------------------|-----------------------------------------------|--0--------------------------------------------|--0--0--0--0--0--0--0--0--0--0--0--0--0--0--0--|
PM PM PMPM PM PM PM ------------------------------------------|--------------10-11-10--------------------|--9-10-9----------------10-10-9--9--------|----------11------------------------11-11-|------------------------------------------|------------------------------------------|
PM PM PM PM PM PM PM PM PM PM PM PM PM PM -----------------------------------------------|-----------------------------------------------|-----------------------------------------------|-----------------------------------------------|--0--------------------------------------------|--0--0--0--0--0--0--0--0--0--0--0--0--0--0--0--|
PM PM PM PM --------------------------------|--------------------------------|--------------------------------|-----------------------------8--|-----------------5--------5-----|--8--5--0--0--5-----0--0--------|
PM PM PM PM PM PM PM PM PM PM PM PM PM PM -----------------------------------------------|-----------------------------------------------|-----------------------------------------------|-----------------------------------------------|--0--------------------------------------------|--0--0--0--0--0--0--0--0--0--0--0--0--0--0--0--|
Verse 2: PM PM PM PM PM PM PM PM PM --------------------------------|--------------------------|--------------------------------|--------------------------|--------------------------------|--------------------------|--------------------------------|--------------------------|--1--0--0--0--4--3--0--0--1-----|--0--------------0-----0--|--1--0--0--0--4--3--0--0--1-----|--0--0--0--0--0--0--0--0--|
PM PM PM PM PM PM PM PM PM PM PM PM --------------------------|--------------------------|--------------------------|--------------------------|--------------------------|--------------------------|--------------------------|--------------------------|--0--------------0--------|--0--------------0--------|--0--0--0--0--0--0--0--0--|--0--0--0--0--0--0--0--0--|
PM PM PM PM PM PM PM PM PM --------------------------------|--------------------------|--------------------------------|--------------------------|--------------------------------|--------------------------|--------------------------------|--------------------------|--1--0--0--0--4--3--0--0--1-----|--0--------------0-----0--|--1--0--0--0--4--3--0--0--1-----|--0--0--0--0--0--0--0--0--|
PM PM PM PM PM PM PM PM PM PM PM PM --------------------------|--------------------------|--------------------------|--------------------------|--------------------------|--------------------------|--------------------------|--------------------------|--0--------------0--------|--0--------------0--------|--0--0--0--0--0--0--0--0--|--0--0--0--0--0--0--0--0--|
Pre Chorus: PM PM PM PM --------------------------------|-------------------|--------------------|--------------------------------|-------------------|--------------------|--------------------------------|-------------------|--------------------|--------------------------------|-------------------|--------------------|--1--0--0--0--4--3--0--0--1-----|--0----------------|--------------------|--1--0--0--0--4--3--0--0--1-----|--0----------------|--------------------|
Chorus:---------------------------|----------------------------|---------------------------|----------------------------|--7--7-7--7-7---7-7--7--7--|--9--9-9--9-10---9-9--9--9--|--x--x-x--x-x---x-x--x--x--|--x--x-x--x--x---x-x--x--x--|--5--5-5--5-5---5-5--5--5--|--7--7-7--7--8---7-7--7--7--|---------------------------|----------------------------|
PM PM PM PM PM PM PM PM PM PM PM ----------------------------|----------------------------|----------------------------|----------------------------|----------------------------|----------------------------|----------------------------|----------------------------|--0-------------------------|--0-------------------------|--0--0--0----0-----0-----0--|--0--0--0----0-----0-----0--|
---------------------------|--------------------------------|---------------------------|--------------------------------|--7--7-7--7-7---7-7--7--7--|--9--9-9--9-10---14-14--14--14--|--x--x-x--x-x---x-x--x--x--|--x--x-x--x--x----x--x---x---x--|--5--5-5--5-5---5-5--5--5--|--7--7-7--7--8---12-12--12--12--|---------------------------|--------------------------------|
PM PM PM PM PM PM PM PM PM PM PM ----------------------------|----------------------------|----------------------------|----------------------------|----------------------------|----------------------------|----------------------------|----------------------------|--0-------------------------|--0-------------------------|--0--0--0----0-----0-----0--|--0--0--0----0-----0-----0--|
---------------------------|----------------------------|---------------------------|----------------------------|--7--7-7--7-7---7-7--7--7--|--9--9-9--9-10---9-9--9--9--|--x--x-x--x-x---x-x--x--x--|--x--x-x--x--x---x-x--x--x--|--5--5-5--5-5---5-5--5--5--|--7--7-7--7--8---7-7--7--7--|---------------------------|----------------------------|
------------------------------|------------------------------|--10--------------------------|--10--------------------------|-------10--------10-------10--|-------10--------10-------10--|------------12--------12------|------------12--------12------|------------------------------|------------------------------|------------------------------|------------------------------|
---------------------------|-----------------------------|---------------------------|-----------------------5-----|--7--7-7--7-7---7-7--7--7--|--9--9-9--9-9------6-7-------|--x--x-x--x-x---x-x--x--x--|--x--x-x--x-x--7-8-----------|--5--5-5--5-5---5-5--5--5--|--7--7-7--7-7----------------|---------------------------|-----------------------------|
Verse: PM PM PM PM PM PM PM PM PM PM PM PM PM PM -----------------------------------------------|-----------------------------------------------|-----------------------------------------------|-----------------------------------------------|--0--------------------------------------------|--0--0--0--0--0--0--0--0--0--0--0--0--0--0--0--|
PM PM PM PM --------------------------------|--------------------------------|--------------------------------|-----------------------------8--|-----------------5--------5-----|--8--5--0--0--5-----0--0--------|
PM PM PM PM PM PM PM PM PM PM PM PM PM PM -----------------------------------------------|-----------------------------------------------|-----------------------------------------------|-----------------------------------------------|--0--------------------------------------------|--0--0--0--0--0--0--0--0--0--0--0--0--0--0--0--|
PM PM PMPM PM PM PM ------------------------------------------|--------------10-11-10--------------------|--9-10-9----------------10-10-9--9--------|----------11------------------------11-11-|------------------------------------------|------------------------------------------|
PM PM PM PM PM PM PM PM PM PM PM PM PM PM -----------------------------------------------|-----------------------------------------------|-----------------------------------------------|-----------------------------------------------|--0--------------------------------------------|--0--0--0--0--0--0--0--0--0--0--0--0--0--0--0--|
PM PM PM PM --------------------------------|--------------------------------|--------------------------------|-----------------------------8--|-----------------5--------5-----|--8--5--0--0--5-----0--0--------|
PM PM PM PM PM PM PM PM PM PM PM PM PM PM -----------------------------------------------|-----------------------------------------------|-----------------------------------------------|-----------------------------------------------|--0--------------------------------------------|--0--0--0--0--0--0--0--0--0--0--0--0--0--0--0--|
Verse 2: PM PM PM PM --------------------------------|---------------------|--------------------------------|---------------------|--------------------------------|---------------------|--------------------------------|---------------------|--1--0--0--0--4--3--0--0--1-----|--0------------------|--1--0--0--0--4--3--0--0--1-----|--0------------------|
--------------------------|---------------------|--------------------------|---------------------|--------------------------|---------------------|-----------------------8--|---------------------|--------------5-----5-----|--0------------------|--8--5-----5--------------|--0------------------|
PM PM PMPM PM PM PM ------------------------------------------|---------------------|--------------10-11-10--------------------|---------------------|--9-10-9----------------10-10-9--9--------|---------------------|----------11------------------------11-11-|---------------------|------------------------------------------|--0------------------|------------------------------------------|--0------------------|
--------------------------|---------------------|--------------------------|---------------------|--------------------------|---------------------|-----------------------8--|---------------------|--------------5-----5-----|--0------------------|--8--5-----5--------------|--0------------------|
PM PM PM PM --------------------------------|-------------------|-------------------|--------------------------------|-------------------|-------------------|--------------------------------|-------------------|-------------------|--------------------------------|-------------------|-------------------|--1--0--0--0--4--3--0--0--1-----|--1----------------|-------------------|--1--0--0--0--4--3--0--0--1-----|--1----------------|-------------------|
Breakdown: PM PM PM PM PM PM -------------------|-------------------|-------------------------------|-------------------|-------------------|-------------------------------|-------------------|-------------------|-------------------------------|-------------------|-------------------|-------------------------------|-------------------|-------------------|--0--0--0--0---------0----0----|-------------------|-------------------|--0--0--0--0---------0----0----|
PM PM PM PM PM PM PM PM PM PM PM PM PM PM PM PM -------------------------------------|-------------------------------|-------------------------------------|-------------------------------|-------------------------------------|-------------------------------|-------------------------------------|-------------------------------|--0-------0--0--0--0--0--0--0--0--0--|--0--0--0--0---------0----0----|--0-------0--0--0--0--0--0--0--0--0--|--0--0--0--0---------0----0----|
PM PM PM PM PM PM PM ---------------------|-------------------------------|---------------------|-------------------------------|---------------------|-------------------------------|---------------------|-------------------------------|--0------------------|--0--0--0--0---------0----0----|--0------------------|--0--0--0--0---------0----0----|
PM PM PM PM PM PM PM PM PM PM PM PM PM PM PM PM -------------------------------------|-------------------------------|-------------------------------------|-------------------------------|-------------------------------------|-------------------------------|-------------------------------------|-------------------------------|--0-------0--0--0--0--0--0--0--0--0--|--0--0--0--0---------0----0----|--0-------0--0--0--0--0--0--0--0--0--|--0--0--0--0---------0----0----|
Chorus: PM ---------------------|---------------------------|----------------------------|---------------------|---------------------------|----------------------------|---------------------|--7--7-7--7-7---7-7--7--7--|--9--9-9--9-10---9-9--9--9--|---------------------|--x--x-x--x-x---x-x--x--x--|--x--x-x--x--x---x-x--x--x--|--0------------------|--5--5-5--5-5---5-5--5--5--|--7--7-7--7--8---7-7--7--7--|--0------------------|---------------------------|----------------------------|
PM PM PM PM PM PM PM PM PM PM PM ----------------------------|----------------------------|----------------------------|----------------------------|----------------------------|----------------------------|----------------------------|----------------------------|--0-------------------------|--0-------------------------|--0--0--0----0-----0-----0--|--0--0---0---0-----0-----0--|
---------------------------|--------------------------------|---------------------------|--------------------------------|--7--7-7--7-7---7-7--7--7--|--9--9-9--9-10---14-14--14--14--|--x--x-x--x-x---x-x--x--x--|--x--x-x--x--x----x--x---x---x--|--5--5-5--5-5---5-5--5--5--|--7--7-7--7--8---12-12--12--12--|---------------------------|--------------------------------|
PM PM PM PM PM PM PM PM PM PM PM ----------------------------|----------------------------|----------------------------|----------------------------|----------------------------|----------------------------|----------------------------|----------------------------|--0-------------------------|--0-------------------------|--0--0--0----0-----0-----0--|--0--0--0----0-----0-----0--|
---------------------------|----------------------------|---------------------------|----------------------------|--7--7-7--7-7---7-7--7--7--|--9--9-9--9-10---9-9--9--9--|--x--x-x--x-x---x-x--x--x--|--x--x-x--x--x---x-x--x--x--|--5--5-5--5-5---5-5--5--5--|--7--7-7--7--8---7-7--7--7--|---------------------------|----------------------------|
------------------------------|------------------------------|--10--------------------------|--10--------------------------|-------10--------10-------10--|-------10--------10-------10--|------------12--------12------|------------12--------12------|------------------------------|------------------------------|------------------------------|------------------------------|
---------------------------|-----------------------------|---------------------------|-----------------------5-----|--7--7-7--7-7---7-7--7--7--|--9--9-9--9-9------6-7-------|--x--x-x--x-x---x-x--x--x--|--x--x-x--x-x--7-8-----------|--5--5-5--5-5---5-5--5--5--|--7--7-7--7-7----------------|---------------------------|-----------------------------|
Bridge/Build up:--------------------------------------------------|--------------------------------------------15-15-|--------------------------------------------------|--12-12-12-12-12-12-12-12-12-12-12-12-12-12-------|--------------------------------------------------|--------------------------------------------------|
--------------------------------------------------|--15-15-15-15-15-15-15-15-------------------------|--------------------------14-14-14-14-14-14-14-14-|--------------------------------------------------|--------------------------------------------------|--------------------------------------------------|
--------------------------------------------------|--------------------------------------------------|--15-15-15-15-15-15-15-15-15-15-15-15-15-15-12-12-|--------------------------------------------------|--------------------------------------------------|--------------------------------------------------|
--------------------------------------------------|--------------------------------------------------|--12-12-12-12-12-12-12-12-12-12-14-14-14-14-14-14-|--------------------------------------------------|--------------------------------------------------|--------------------------------------------------|
--------------------------------------------------|--------------------------------------------15-15-|--------------------------------------------------|--12-12-12-12-12-12-12-12-12-12-12-12-12-12-------|--------------------------------------------------|--------------------------------------------------|
--------------------------------------------------|--15-15-15-15-15-15-15-15-------------------------|--------------------------14-14-14-14-14-14-14-14-|--------------------------------------------------|--------------------------------------------------|--------------------------------------------------|
--------------------------------------------------|--------------------------------------------------|--15-15-15-15-15-15-15-15-15-15-15-15-15-15-12-12-|--------------------------------------------------|--------------------------------------------------|--------------------------------------------------|
--------------------------------------------------|--------------------------------------------------|--12-12-12-12-12-12-12-12-12-12-14-14-14-14-14-14-|--------------------------------------------------|--------------------------------------------------|--------------------------------------------------|
Breakdown:--------------------------------------------------|--------------------------------------------15-15-|--------------------------------------------------|--12-12-12-12-12-12-12-12-12-12-12-12-12-12-------|--------------------------------------------------|--------------------------------------------------|
--------------------------------------------------|--15-15-15-15-15-15-15-15-------------------------|--------------------------14-14-14-14-14-14-14-14-|--------------------------------------------------|--------------------------------------------------|--------------------------------------------------|
--------------------------------------------------|--------------------------------------------------|--15-15-15-15-15-15-15-15-15-15-15-15-15-15-12-12-|--------------------------------------------------|--------------------------------------------------|--------------------------------------------------|
--------------------------------------------------|--------------------------------------------------|--12-12-12-12-12-12-12-12-12-12-14-14-14-14-14-14-|--------------------------------------------------|--------------------------------------------------|--------------------------------------------------|
--------------------------------------------------|--------------------------------------------15-15-|--------------------------------------------------|--12-12-12-12-12-12-12-12-12-12-12-12-12-12-------|--------------------------------------------------|--------------------------------------------------|
--------------------------------------------------|--15-15-15-15-15-15-15-15-------------------------|--------------------------14-14-14-14-14-14-14-14-|--------------------------------------------------|--------------------------------------------------|--------------------------------------------------|
--------------------------------------------------|----------------------|--------------------------------------------------|----------------------|--15-15-15-15-15-15-15-15-15-15-15-15-15-15-15-15-|--15------------------|--------------------------------------------------|----------------------|--------------------------------------------------|----------------------|--------------------------------------------------|----------------------|
PM PM PM PM PM PM PM PM PM PM PM PM ------------------------------------|--------------------------|------------------------------------|--------------------------|------------------------------------|--------------------------|------------------------------------|--------------------------|--0--0--0--0--0--0--0--0--0---------|-----0--0--0--------------|--0--0--0--0--0--0--0--0--0---------|-----0--0--0--------------|
PM PM PM PM PM PM PM PM -----------------------------------|---------------------|-----------------------------------|---------------------|-----------------------------------|---------------------|-----------------------------------|---------------------|-----0--0----0--0----0-------0--0--|--0------------------|-----0--0----0--0----0-------0--0--|--0------------------|
PM PM PM PM PM PM PM PM PM PM PM PM ------------------------------------|--------------------------|------------------------------------|--------------------------|------------------------------------|--------------------------|------------------------------------|--------------------------|--0--0--0--0--0--0--0--0--0---------|-----0--0--0--------------|--0--0--0--0--0--0--0--0--0---------|-----0--0--0--------------|
Pre Chorus: PM PM PM PM PM PM -----------------------------------|---------------------|-------------------|-----------------------------------|---------------------|-------------------|-----------------------------------|---------------------|--7----------------|-----------------------------------|---------------------|--x----------------|---------------------0-------0--0--|--0------------------|--5----------------|-----0--0----0--0----0-------0--0--|--0------------------|-------------------|
Chorus:-------------------|---------------------------|----------------------------|-------------------|---------------------------|----------------------------|--9----------------|--7--7-7--7-7---7-7--7--7--|--9--9-9--9-10---9-9--9--9--|--x----------------|--x--x-x--x-x---x-x--x--x--|--x--x-x--x--x---x-x--x--x--|--7----------------|--5--5-5--5-5---5-5--5--5--|--7--7-7--7--8---7-7--7--7--|-------------------|---------------------------|----------------------------|
PM PM PM PM PM PM PM PM PM PM PM ----------------------------|----------------------------|----------------------------|----------------------------|----------------------------|----------------------------|----------------------------|----------------------------|--0-------------------------|--0-------------------------|--0--0--0----0-----0-----0--|--0--0--0----0-----0-----0--|
---------------------------|--------------------------------|---------------------------|--------------------------------|--7--7-7--7-7---7-7--7--7--|--9--9-9--9-10---14-14--14--14--|--x--x-x--x-x---x-x--x--x--|--x--x-x--x--x----x--x---x---x--|--5--5-5--5-5---5-5--5--5--|--7--7-7--7--8---12-12--12--12--|---------------------------|--------------------------------|
PM PM PM PM PM PM PM PM PM PM PM ----------------------------|----------------------------|----------------------------|----------------------------|----------------------------|----------------------------|----------------------------|----------------------------|--0-------------------------|--0-------------------------|--0--0--0----0-----0-----0--|--0--0--0----0-----0--L--0--|
---------------------------|----------------------------|---------------------------|----------------------------|--7--7-7--7-7---7-7--7--7--|--9--9-9--9-10---9-9--9--9--|--x--x-x--x-x---x-x--x--x--|--x--x-x--x--x---x-x--x--x--|--5--5-5--5-5---5-5--5--5--|--7--7-7--7--8---7-7--7--7--|---------------------------|----------------------------|
------------------------------|------------------------------|--10--------------------------|--10--------------------------|-------10--------10-------10--|-------10--------10-------10--|------------12--------12------|------------12--------12------|------------------------------|------------------------------|------------------------------|------------------------------|
---------------------------|-----------------------------|---------------------------|-----------------------5-----|--7--7-7--7-7---7-7--7--7--|--9--9-9--9-9------6-7-------|--x--x-x--x-x---x-x--x--x--|--x--x-x--x-x--7-8-----------|--5--5-5--5-5---5-5--5--5--|--7--7-7--7-7----------------|---------------------------|-----------------------------|
Breakdown: PM PM PM PM PM PM PM -------------------------------|---------------------|-------------------------------|---------------------|-------------------------------|---------------------|-------------------------------|---------------------|--0--0--0--0---------0---0----|--0------------------|--0--0--0--0---------0----0----|--0------------------|
PM PM PM PM PM PM PM PM PM PM PM PM PM PM PM PM
-------------------------------|-------------------------------------|-------------------------------|-------------------------------------|-------------------------------|-------------------------------------|-------------------------------|-------------------------------------|--0--0--0--0---------0----0----|--0-------0--0--0--0--0--0--0--0--0--|--0--0--0--0---------0----0----|--0-------0--0--0--0--0--0--0--0--0--|
PM PM PM PM PM PM PM PM -------------------------------------|-----||-------------------------------------|-----||-------------------------------------|-----||-------------------------------------|-----||--0--0--0--0----0--0-----------------|-----||--0--0--0--0----0--0--0--0--0--0--0--|-----||
GUITAR 2
Intro:D||-------|-------|-------|-------|-------|-------|-------|-------|A||-------|-------|-------|-------|-------|-------|-------|-------|F||-------|-------|-------|-------|-------|-------|-------|-------|C||-------|-------|-------|-------|-------|-------|-------|-------|G||-------|-------|-------|-------|-------|-------|-------|-------|C||-------|-------|-------|-------|-------|-------|-------|-------|
PM PM PM PM PM PM PM PM PM PM PM PM ------------------------------------|--------------------------|------------------------------------|--------------------------|------------------------------------|--------------------------|------------------------------------|--------------------------|--0--0--0--0--0--0--0--0--0---------|-----0--0--0--------------|--0--0--0--0--0--0--0--0--0---------|-----0--0--0--------------|
PM PM PM PM PM PM PM PM -----------------------------------|---------------------|-----------------------------------|---------------------|-----------------------------------|---------------------|-----------------------------------|---------------------|-----0--0----0--0----0-------0--0--|--0------------------|-----0--0----0--0----0-------0--0--|--0------------------|
PM PM PM PM PM PM PM PM PM PM PM PM ------------------------------------|--------------------------|------------------------------------|--------------------------|------------------------------------|--------------------------|------------------------------------|--------------------------|--0--0--0--0--0--0--0--0--0---------|-----0--0--0--------------|--0--0--0--0--0--0--0--0--0---------|-----0--0--0--------------|
Verse: PM PM PM PM PM PM PM PM -----------------------------------|---------------------|-------------------|-----------------------------------|---------------------|-------------------|-----------------------------------|---------------------|-------------------|-----------------------------------|---------------------|-------------------|-----0--0----0--0----0-------0--0--|--0------------------|--0----------------|-----0--0----0--0----0-------0--0--|--0------------------|--0----------------|
PM PM PM PM --------------------------------|--------------------------------|--------------------------------|--------------------------------|--1--0--0--0--4--3--0--0--1-----|--1--0--0--0--4--3--0--0--1-----|
PM PM PM PM PM PM PM PM PM PM PM PM PM PM -----------------------------------------------|-----------------------------------------------|-----------------------------------------------|-----------------------------------------------|--0--------------------------------------------|--0--0--0--0--0--0--0--0--0--0--0--0--0--0--0--|
PM PM PM PM --------------------------------|--------------------------------|--------------------------------|-----------------------------8--|-----------------5--------5-----|--8--5--0--0--5-----0--0--------|
PM PM PM PM PM PM PM PM PM PM PM PM PM PM -----------------------------------------------|-----------------------------------------------|-----------------------------------------------|-----------------------------------------------|--0--------------------------------------------|--0--0--0--0--0--0--0--0--0--0--0--0--0--0--0--|
i suck at harmony's... PM PM PM PM PM PM PM --------------------------------8-9-8--------------------|--8-9-8--5-----------------------------9--9--8--8--5--5--|---------------------------------------------------------|---------------------------------------------------------|---------------------------------------------------------|---------------------------------------------------------|
PM PM PM PM PM PM PM PM PM PM PM PM PM PM -----------------------------------------------|-----------------------------------------------|-----------------------------------------------|-----------------------------------------------|--0--------------------------------------------|--0--0--0--0--0--0--0--0--0--0--0--0--0--0--0--|
PM PM PM PM --------------------------------|--------------------------------|--------------------------------|-----------------------------8--|-----------------5--------5-----|--8--5--0--0--5-----0--0--------|
PM PM PM PM PM PM PM PM PM PM PM PM PM PM -----------------------------------------------|-----------------------------------------------|-----------------------------------------------|-----------------------------------------------|--0--------------------------------------------|--0--0--0--0--0--0--0--0--0--0--0--0--0--0--0--|
PM PM PM PM --------------------------------|--------------------------------|--------------------------------|--------------------------------|--1--0--0--0--4--3--0--0--1-----|--1--0--0--0--4--3--0--0--1-----|
PM PM PM PM PM PM PM PM PM PM PM PM PM PM -----------------------------------------------|-----------------------------------------------|-----------------------------------------------|-----------------------------------------------|--0--------------------------------------------|--0--0--0--0--0--0--0--0--0--0--0--0--0--0--0--|
PM PM PM PM --------------------------------|--------------------------------|--------------------------------|-----------------------------8--|-----------------5--------5-----|--8--5--0--0--5-----0--0--------|
PM PM PM PM PM PM PM PM PM PM PM PM PM PM -----------------------------------------------|-----------------------------------------------|-----------------------------------------------|-----------------------------------------------|--0--------------------------------------------|--0--0--0--0--0--0--0--0--0--0--0--0--0--0--0--|
i suck at harmony's... PM PM PM PM PM PM PM --------------------------------8-9-8--------------------|--8-9-8--5-----------------------------9--9--8--8--5--5--|---------------------------------------------------------|---------------------------------------------------------|---------------------------------------------------------|---------------------------------------------------------|
PM PM PM PM PM PM PM PM PM PM PM PM PM PM -----------------------------------------------|-----------------------------------------------|-----------------------------------------------|-----------------------------------------------|--0--------------------------------------------|--0--0--0--0--0--0--0--0--0--0--0--0--0--0--0--|
PM PM PM PM --------------------------------|--------------------------------|--------------------------------|-----------------------------8--|-----------------5--------5-----|--8--5--0--0--5-----0--0--------|
PM PM PM PM PM PM PM PM PM PM PM PM PM PM -----------------------------------------------|-----------------------------------------------|-----------------------------------------------|-----------------------------------------------|--0--------------------------------------------|--0--0--0--0--0--0--0--0--0--0--0--0--0--0--0--|
Verse 2: PM PM PM PM PM PM PM PM PM --------------------------------|--------------------------|--------------------------------|--------------------------|--------------------------------|--------------------------|--------------------------------|--------------------------|--1--0--0--0--4--3--0--0--1-----|--0--------------0-----0--|--1--0--0--0--4--3--0--0--1-----|--0--0--0--0--0--0--0--0--|
PM PM PM PM PM PM PM PM PM PM PM PM --------------------------|--------------------------|--------------------------|--------------------------|--------------------------|--------------------------|--------------------------|--------------------------|--0--------------0--------|--0--------------0--------|--0--0--0--0--0--0--0--0--|--0--0--0--0--0--0--0--0--|
PM PM PM PM PM PM PM PM PM --------------------------------|--------------------------|--------------------------------|--------------------------|--------------------------------|--------------------------|--------------------------------|--------------------------|--1--0--0--0--4--3--0--0--1-----|--0--------------0-----0--|--1--0--0--0--4--3--0--0--1-----|--0--0--0--0--0--0--0--0--|
PM PM PM PM PM PM PM PM PM PM PM PM --------------------------|--------------------------|--------------------------|--------------------------|--------------------------|--------------------------|--------------------------|--------------------------|--0--------------0--------|--0--------------0--------|--0--0--0--0--0--0--0--0--|--0--0--0--0--0--0--0--0--|
Pre Chorus: PM PM PM PM --------------------------------|-------------------|--------------------------------|-------------------|--------------------------------|-------------------|--------------------------------|-------------------|--1--0--0--0--4--3--0--0--1-----|--0----------------|--1--0--0--0--4--3--0--0--1-----|--0----------------|
Pick Slide ----------------------------------------------------------------------------------------------------------------------------------------------------------------------------------------------------------------------------------------------------------------------------------------------------------------------------------18-18-17-17-16-16-15-15-14-14-13-13-12---------12-11-11-10-10-9-9-8-8-7-7-------18-18-17-17-16-16-15-15-14-14-13-13-12---------12-11-11-10-10-9-9-8-8-7-7-----
Chorus:---------------------------|---------------------------|---------------------------|---------------------------|--3--3-3--3-3---3-3--3--3--|--5--5-5--5-7---5-5--5--5--|--x--x-x--x-x---x-x--x--x--|--x--x-x--x-x---x-x--x--x--|--1--1-1--1-1---1-1--1--1--|--3--3-3--3-5---3-3--3--3--|---------------------------|---------------------------|
PM PM PM PM PM PM PM PM PM PM PM ----------------------------|----------------------------|----------------------------|----------------------------|----------------------------|----------------------------|----------------------------|----------------------------|--0-------------------------|--0-------------------------|--0--0--0----0-----0-----0--|--0--0--0----0-----0-----0--|
---------------------------|-------------------------------|---------------------------|-------------------------------|--3--3-3--3-3---3-3--3--3--|--5--5-5--5-7---10-10--10--10--|--x--x-x--x-x---x-x--x--x--|--x--x-x--x-x----x--x---x---x--|--1--1-1--1-1---1-1--1--1--|--3--3-3--3-5----8--8---8---8--|---------------------------|-------------------------------|
PM PM PM PM PM PM PM PM PM PM PM ----------------------------|----------------------------|----------------------------|----------------------------|----------------------------|----------------------------|----------------------------|----------------------------|--0-------------------------|--0-------------------------|--0--0--0---0-----0-----0--|--0--0--0----0-----0-----0--|
---------------------------|---------------------------|---------------------------|---------------------------|--3--3-3--3-3---3-3--3--3--|--5--5-5--5-7---5-5--5--5--|--x--x-x--x-x---x-x--x--x--|--x--x-x--x-x---x-x--x--x--|--1--1-1--1-1---1-1--1--1--|--3--3-3--3-5---3-3--3--3--|---------------------------|---------------------------|
---------------------------|---------------------------|---------------------------|---------------------------|---------------------------|---------------------------|--7--7-7--7-7---7-7--7--7--|--5--5-5--5-5---5-5--5--5--|--5--5-5--5-5---5-5--5--5--|--3--3-3--3-3---3-3--3--3--|---------------------------|---------------------------|
---------------------------|------------------------|---------------------------|------------------------|--3--3-3--3-3---3-3--3--3--|--5--5-5--5-5-----------|--x--x-x--x-x---x-x--x--x--|--x--x-x--x-x-----------|--1--1-1--1-1---1-1--1--1--|--3--3-3--3-3-----------|---------------------------|------------------------|
Verse: PM PM PM PM PM PM PM PM PM PM PM PM PM PM -----------------------------------------------|-----------------------------------------------|-----------------------------------------------|-----------------------------------------------|--0--------------------------------------------|--0--0--0--0--0--0--0--0--0--0--0--0--0--0--0--|
PM PM PM PM --------------------------------|--------------------------------|--------------------------------|-----------------------------8--|-----------------5--------5-----|--8--5--0--0--5-----0--0--------|
PM PM PM PM PM PM PM PM PM PM PM PM PM PM -----------------------------------------------|-----------------------------------------------|-----------------------------------------------|-----------------------------------------------|--0--------------------------------------------|--0--0--0--0--0--0--0--0--0--0--0--0--0--0--0--|
i suck at harmony's... PM PM PM PM PM PM PM --------------------------------8-9-8--------------------|--8-9-8--5-----------------------------9--9--8--8--5--5--|---------------------------------------------------------|---------------------------------------------------------|---------------------------------------------------------|---------------------------------------------------------|
PM PM PM PM PM PM PM PM PM PM PM PM PM PM -----------------------------------------------|-----------------------------------------------|-----------------------------------------------|-----------------------------------------------|--0--------------------------------------------|--0--0--0--0--0--0--0--0--0--0--0--0--0--0--0--|
PM PM PM PM --------------------------------|--------------------------------|--------------------------------|-----------------------------8--|-----------------5--------5-----|--8--5--0--0--5-----0--0--------|
PM PM PM PM PM PM PM PM PM PM PM PM PM PM -----------------------------------------------|-----------------------------------------------|-----------------------------------------------|-----------------------------------------------|--0--------------------------------------------|--0--0--0--0--0--0--0--0--0--0--0--0--0--0--0--|
PM PM PM PM --------------------------------|--------------------------------|--------------------------------|--------------------------------|--1--0--0--0--4--3--0--0--1-----|--1--0--0--0--4--3--0--0--1-----|
Verse 2: PM PM PM PM PM PM PM PM PM PM PM PM PM PM -----------------------------------------------|-----------------------------------------------|-----------------------------------------------|-----------------------------------------------|--0--------------------------------------------|--0--0--0--0--0--0--0--0--0--0--0--0--0--0--0--|
PM PM PM PM PM PM PM PM PM PM PM PM PM PM ------------------------------------------------|------------------------------------------------|------------------------------------------------|------------------------------------------------|------------------------------------------------|--0--0--0--0--0--0--0--0--0--0--0--0--0--0--0-0-|
PM PM PM PM PM PM PM PM PM PM PM PM PM PM ------------------------------------------------|------------------------------------------------|------------------------------------------------|------------------------------------------------|------------------------------------------------|--0--0--0--0--0--0--0--0--0--0--0--0--0--0--0-0-|
i suck at harmony's... PM PM PM PM PM PM PM --------------------------------8-9-8--------------------|--8-9-8--5-----------------------------9--9--8--8--5--5--|---------------------------------------------------------|---------------------------------------------------------|---------------------------------------------------------|---------------------------------------------------------|
PM PM PM PM PM PM PM PM PM PM PM PM PM PM -----------------------------------------------|-----------------------------------------------|-----------------------------------------------|-----------------------------------------------|--0--------------------------------------------|--0--0--0--0--0--0--0--0--0--0--0--0--0--0--0--|
PM PM PM PM PM PM PM PM PM PM PM PM PM PM ------------------------------------------------|------------------------------------------------|------------------------------------------------|------------------------------------------------|------------------------------------------------|--0--0--0--0--0--0--0--0--0--0--0--0--0--0--0-0-|
PM PM PM PM PM PM PM PM PM PM PM PM PM PM ------------------------------------------------|------------------------------------------------|------------------------------------------------|------------------------------------------------|------------------------------------------------|--0--0--0--0--0--0--0--0--0--0--0--0--0--0--0-0-|
PM PM PM PM --------------------------------|-------------------|-------------------|--------------------------------|-------------------|-------------------|--------------------------------|-------------------|-------------------|--------------------------------|-------------------|-------------------|--1--0--0--0--4--3--0--0--1-----|--1----------------|-------------------|--1--0--0--0--4--3--0--0--1-----|--1----------------|-------------------|
Pick Slide ----------------------------------------------------------------------------------------------------------------------------------------------------------------------------------------------------------------------------------------------------------------------------------------------------------------------------------18-18-17-17-16-16-15-15-14-14-13-13-12---------12-11-11-10-10-9-9-8-8-7-7-6-6---18-18-17-17-16-16-15-15-14-14-13-13-12---------12-11-11-10-10-9-9-8-8-7-7-6-6-
Breakdown: PM PM PM PM PM PM -------------------|-------------------------------|-------------------|-------------------------------|-------------------|-------------------------------|-------------------|-------------------------------|-------------------|--0--0--0--0---------0----0----|-------------------|--0--0--0--0---------0---0----|
PM PM PM PM PM PM PM PM PM PM PM PM PM PM PM PM -------------------------------------|-------------------------------|-------------------------------------|-------------------------------|-------------------------------------|-------------------------------|-------------------------------------|-------------------------------|--0-------0--0--0--0--0--0--0--0--0--|--0--0--0--0---------0----0----|--0-------0--0--0--0--0--0--0--0--0--|--0--0--0--0---------0----0----|
PM PM PM PM PM PM PM ---------------------|-------------------------------|---------------------|-------------------------------|---------------------|-------------------------------|---------------------|-------------------------------|--0------------------|--0--0--0--0---------0----0----|--0------------------|--0--0--0--0---------0----0----|
PM PM PM PM PM PM PM PM PM PM PM PM PM PM PM PM -------------------------------------|-------------------------------|-------------------------------------|-------------------------------|-------------------------------------|-------------------------------|-------------------------------------|-------------------------------|--0-------0--0--0--0--0--0--0--0--0--|--0--0--0--0---------0----0----|--0-------0--0--0--0--0--0--0--0--0--|--0--0--0--0---------0----0----|
Chorus: PM ---------------------|---------------------------|---------------------------|---------------------|---------------------------|---------------------------|---------------------|--3--3-3--3-3---3-3--3--3--|--5--5-5--5-7---5-5--5--5--|---------------------|--x--x-x--x-x---x-x--x--x--|--x--x-x--x-x---x-x--x--x--|--0------------------|--1--1-1--1-1---1-1--1--1--|--3--3-3--3-5---3-3--3--3--|--0------------------|---------------------------|---------------------------|
PM PM PM PM PM PM PM PM PM PM PM ----------------------------|----------------------------|----------------------------|----------------------------|----------------------------|----------------------------|----------------------------|----------------------------|--0-------------------------|--0-------------------------|--0--0--0----0-----0-----0--|--0--0--0----0-----0-----0--|
---------------------------|-------------------------------|---------------------------|-------------------------------|--3--3-3--3-3---3-3--3--3--|--5--5-5--5-7---10-10--10--10--|--x--x-x--x-x---x-x--x--x--|--x--x-x--x-x----x--x---x---x--|--1--1-1--1-1---1-1--1--1--|--3--3-3--3-5----8--8---8---8--|---------------------------|-------------------------------|
PM PM PM PM PM PM PM PM PM PM PM ----------------------------|----------------------------|----------------------------|----------------------------|----------------------------|----------------------------|----------------------------|----------------------------|--0-------------------------|--0-------------------------|--0--0--0----0-----0-----0--|--0--0--0----0-----0-----0--|
---------------------------|---------------------------|---------------------------|---------------------------|--3--3-3--3-3---3-3--3--3--|--5--5-5--5-7---5-5--5--5--|--x--x-x--x-x---x-x--x--x--|--x--x-x--x-x---x-x--x--x--|--1--1-1--1-1---1-1--1--1--|--3--3-3--3-5---3-3--3--3--|---------------------------|---------------------------|
---------------------------|---------------------------|---------------------------|---------------------------|---------------------------|---------------------------|--7--7-7--7-7---7-7--7--7--|--5--5-5--5-5---5-5--5--5--|--5--5-5--5-5---5-5--5--5--|--3--3-3--3-3---3-3--3--3--|---------------------------|---------------------------|
Bridge/Build Up:---------------------------|------------------------|-------------------|---------------------------|------------------------|-------------------|--3--3-3--3-3---3-3--3--3--|--5--5-5--5-5-----------|-------------------|--x--x-x--x-x---x-x--x--x--|--x--x-x--x-x-----------|-------------------|--1--1-1--1-1---1-1--1--1--|--3--3-3--3-3-----------|--0----------------|---------------------------|------------------------|--0----------------|
-------------------|-------------------|-------------------|-------------------|-------------------|-------------------|-------------------|-------------------|-------------------|-------------------|-------------------|-------------------|-------------------|-------------------|-------------------|-------------------|-------------------|-------------------|-------------------|--0----------------|-------------------|-------------------|-------------------|--0----------------|
PM -------------------|-------------------|---------------------|-------------------|-------------------|---------------------|-------------------|-------------------|---------------------|-------------------|-------------------|---------------------|-------------------|-------------------|-----------0---------|-------------------|-------------------|-----------0---------|
Breakdown: PM PM PM PM PM PM PM PM PM PM PM PM ------------------------------------|--------------------------|------------------------------------|--------------------------|------------------------------------|--------------------------|------------------------------------|--------------------------|--0--0--0--0--0--0--0--0--0---------|-----0--0--0--------------|--0--0--0--0--0--0--0--0--0---------|-----0--0--0--------------|
PM PM PM PM PM PM PM PM -----------------------------------|---------------------|-----------------------------------|---------------------|-----------------------------------|---------------------|-----------------------------------|---------------------|-----0--0----0--0----0-------0--0--|--0------------------|-----0--0----0--0----0-------0--0--|--0------------------|
PM PM PM PM PM PM PM PM PM PM PM PM ------------------------------------|--------------------------|------------------------------------|--------------------------|------------------------------------|--------------------------|------------------------------------|--------------------------|--0--0--0--0--0--0--0--0--0---------|-----0--0--0--------------|--0--0--0--0--0--0--0--0--0---------|-----0--0--0--------------|
PM PM PM PM PM PM PM PM -----------------------------------|---------------------|-----------------------------------|---------------------|-----------------------------------|---------------------|-----------------------------------|---------------------|-----0--0----0--0----0-------0--0--|--0------------------|-----0--0----0--0----0-------0--0--|--0------------------|
PM PM PM PM PM PM PM PM PM PM PM PM ------------------------------------|--------------------------|------------------------------------|--------------------------|------------------------------------|--------------------------|------------------------------------|--------------------------|--0--0--0--0--0--0--0--0--0---------|-----0--0--0--------------|--0--0--0--0--0--0--0--0--0---------|-----0--0--0--------------|
PM PM PM PM PM PM PM PM -----------------------------------|---------------------|-----------------------------------|---------------------|-----------------------------------|---------------------|-----------------------------------|---------------------|-----0--0----0--0----0-------0--0--|--0------------------|-----0--0----0--0----0-------0--0--|--0------------------|
PM PM PM PM PM PM PM PM PM PM PM PM ------------------------------------|--------------------------|------------------------------------|--------------------------|------------------------------------|--------------------------|------------------------------------|--------------------------|--0--0--0--0--0--0--0--0--0---------|-----0--0--0--------------|--0--0--0--0--0--0--0--0--0---------|-----0--0--0--------------|
Pre Chorus: PM PM PM PM PM PM -----------------------------------|---------------------|-------------------|-----------------------------------|---------------------|-------------------|-----------------------------------|---------------------|--3----------------|-----------------------------------|---------------------|--x----------------|---------------------0-------0--0--|--0------------------|--1----------------|-----0--0----0--0----0-------0--0--|--0------------------|-------------------|
Chorus:-------------------|---------------------------|---------------------------|-------------------|---------------------------|---------------------------|--5----------------|--3--3-3--3-3---3-3--3--3--|--5--5-5--5-7---5-5--5--5--|--x----------------|--x--x-x--x-x---x-x--x--x--|--x--x-x--x-x---x-x--x--x--|--3----------------|--1--1-1--1-1---1-1--1--1--|--3--3-3--3-5---3-3--3--3--|-------------------|---------------------------|---------------------------|
PM PM PM PM PM PM PM PM PM PM PM ----------------------------|----------------------------|----------------------------|----------------------------|----------------------------|----------------------------|----------------------------|----------------------------|--0-------------------------|--0-------------------------|--0--0--0----0-----0-----0--|--0--0--0----0-----0-----0--|
Tap to rate this tab
 
# A B C D E F G H I J K L M N O P Q R S T U V W X Y Z