No Knife - The Red Bedroom tab

No Knife
THE RED BEDROOM
From the LP "Riot for Romance!"
Transcribed by John Burris and Jim Bodenschatz
(jlburris@earthlink.net and noknifetabs@hotmail.com)

***TUNING***
(low to high) F-Bb-Eb-G#-C-f (1/2 step up)

______________________________________________________

First Intro & First Verse:

guitar 1 (left channel):

---------------------------------------------------|--------------------------------12-12----10-10-10--| Play 8 times------12-12--11--11-11-11-------------11-----------|-----------------12-12-12---10---9-9---9--9--9--9--| (Lyrics kick in after------10-10--10--10-10-10----0---------------------| 4th time through)-0-------------------------------------------------|
guitar 2 (right channel):
--------------------------------------10-----------|--------------------------------12-12----10-10-10--|------12-12--11--11-11-11-------------11-----------| play 4 times-----------------12-12-12---10---9-9---9--9--9--9--|------10-10--10--10-10-10----0---------------------|-0-------------------------------------------------|
then:
----------------------------------------------------|------12---------------------------------12-12-12\--|------12---------------------------------12-12-12\--| play 4 times----------------------------------------------------|----------------------------------------------------|----------------------------------------------------|
First Chorus: both guitars:
--------------------------------|--------------------------------|------12-12-11\--7-7-7---4p0----| play twice----------9------------------5--|------10----12\--5-5-5----------|-0------------------------------|
Second Verse: guitar 1:
---------------------------------------------------|--------------------------------12-12----10-10-10--|------12-12--11--11-11-11-------------11-----------| play 4 times-----------------12-12-12---10---9-9---9--9--9--9--|------10-10--10--10-10-10----0---------------------|-0-------------------------------------------------|
guitar 2:
----------------------------------------------------|------12---------------------------------12-12-12\--|------12---------------------------------12-12-12\--| play 4 times----------------------------------------------------|----------------------------------------------------|----------------------------------------------------|
Second Chorus: both guitars:
--------------------------------|--------------------------------|------12-12-11\--7-7-7---4p0----|----------9------------------5--|------10----12\--5-5-5----------|-0------------------------------|
then:
-----------------------------------8--8--8--8--8--8--|-----------------------------------8--8--8--8--8--8--|------12-12-11\--7-7-7---4p0-------8--8--8--8--8--8--|----------9------------------5----10-10-10-10-10-10--|------10----12\--5-5-5-------------------------------|-0---------------------------------------------------|
then: guitar 1 (guitar 2 plays first part of previous progression twice):
-----------------------------------------|---12--12\-7/-----12--12\-7--7/8---------|-----------------------------------------|-----------------------------------------|-----------------------------------------|-0-----------------------------------x\--|
then:
----------------------------------------8--8--8--8--8--8--|---12--12\-7/-----12--12\-7--7/8--------8--8--8--8--8--8--|----------------------------------------8--8--8--8--8--8--|---------------------------------------10-10-10-10-10-10--|----------------------------------------------------------|-0--------------------------------------------------------|
Second Intro & Third Verse: guitar 1:
---------------------------------------------------|--------------------------------12-12----10-10-10--|------12-12--11--11-11-11-------------11-----------| play 8 times-----------------12-12-12---10---9-9---9--9--9--9--|------10-10--10--10-10-10----0---------------------|-0-------------------------------------------------|
guitar 2:
--------------------------------------10-----------|--------------------------------12-12----10-10-10--|------12-12--11--11-11-11-------------11-----------| play 4 times-----------------12-12-12---10---9-9---9--9--9--9--|------10-10--10--10-10-10----0---------------------|-0-------------------------------------------------|
then:
----------------------------------------------------|------12---------------------------------12-12-12\--|------12---------------------------------12-12-12\--| play 4 times----------------------------------------------------|----------------------------------------------------|----------------------------------------------------|
Third Chorus: both guitars:
--------------------------------|--------------------------------|------12-12-11\--7-7-7---4p0----|----------9------------------5--|------10----12\--5-5-5----------|-0------------------------------|
then:
-----------------------------------8--8--8--8--8--8--|-----------------------------------8--8--8--8--8--8--|------12-12-11\--7-7-7---4p0-------8--8--8--8--8--8--|----------9------------------5----10-10-10-10-10-10--|------10----12\--5-5-5-------------------------------|-0---------------------------------------------------|
then: guitar 1 (guitar 2 plays previous progression twice):
-----------------------------------------|---12--12\-7/-----12--12\-7--7/8---------|-----------------------------------------|-----------------------------------------|-----------------------------------------|-0-----------------------------------x\--|
then:
------------------------------------8-----8------|---12--12\-7/-----12--12\-7--7/8------8-----8----|----------------------------------------8-----8--|-------------------------------------------------|-------------------------------------------------|-0-----------------------------------------------|
Bridge: both guitars:
------------------------------------|------------------3-3-3-3-----------|---------------------------4-4-4-4--|------------------------------------|-3-3-3-3-3-3-3-3--------------------|------------------------------------|
then:
------------------------------------|------------------3-3-3-3-----------|---------------------------4-4-4-4--|------------------------------------|------------------------------------|-2-2-2-2-2-2-2-2--------------------|
then:
------------------------------------|------------------3-3-3-3-----------|---------------------------4-4-4-4--|------------------------------------|-2-2-2-2-2-2-2-2--------------------|-0-0-0-0-0-0-0-0--------------------|
then: guitar 1:
-----------------------------------------|-----------------------------------------|-5-5-5-5--7-7-7-7--11-11-11-11--7-7-7-7--|-----------------------------------------|-3-3-3-3--5-5-5-5---9--9--9--9--5-5-5-5--|-----------------------------------------|
guitar 2:
-------------------------------------------|-------------------------------------------|-5-5-5-5--7-7-7-7--11-11-11-11--12-12-12\--|-------------------------------------------|-3-3-3-3--5-5-5-5---9--9--9--9--10-10-10\--|-------------------------------------------|
then: both guitars:
------------------------------------|------------------3-3-3-3-----------|---------------------------4-4-4-4--|------------------------------------|-3-3-3-3-3-3-3-3--------------------|------------------------------------|
then:
------------------------------------|------------------3-3-3-3-----------|---------------------------4-4-4-4--|------------------------------------|------------------------------------|-2-2-2-2-2-2-2-2--------------------|
then:
------------------------------------|------------------3-3-3-3-----------|---------------------------4-4-4-4--|------------------------------------|-2-2-2-2-2-2-2-2--------------------|-0-0-0-0-0-0-0-0--------------------|
then:
--------------|-5-5-5-5---4--|--------------|--------------|-3-3-3-3---3--|--------------|
Interlude: guitar 1:
-----------------------------------------------------|-12------------12-0-14-0-15-14-12-0------12-0--------|---12-0--0-12-0--------------------12-0------12------| play 8 times-------14------------------------------14------14-0--|-----------------------------------------------------|-----------------------------------------------------|
guitar 2:
-----------------------------------------------------|-12------------12-0-14-0-15-14-12-0------12-0--------|---12-0--0-12-0--------------------12-0------12------| play 3 times-------14------------------------------14------14-0--|-----------------------------------------------------|-----------------------------------------------------|
then:
-----------------------------------------------------|-12------------12-0-14-0-15-14-12-0------12-0-12-12--|---12-0--0-12-0--------------------12-0--------------|-------14------------------------------14------------|-----------------------------------------------------|-----------------------------------------------------|
then:
--------------------------------------------------|-12-12-12-12-12-12-12-12-12-12-12-12-12-12-15-15--|--------------------------------------------------|--------------------------------------------------|--------------------------------------------------|--------------------------------------------------|
then:
-------------------------------------------------------|-12-12-12-12-12-12-12-12-12-12-12-12-12-12-12-0--------|-----------------------------------------------12------| play 3 times-------------------------------------------------14-0--|-------------------------------------------------------|-------------------------------------------------------|
Fourth Chorus: both guitars:
--------------------------------|--------------------------------|------12-12-11\--7-7-7---4p0----|----------9------------------5--|------10----12\--5-5-5----------|-0------------------------------|
then:
-----------------------------------8--8--8--8--8--8--|-----------------------------------8--8--8--8--8--8--|------12-12-11\--7-7-7---4p0-------8--8--8--8--8--8--|----------9------------------5----10-10-10-10-10-10--|------10----12\--5-5-5-------------------------------|-0---------------------------------------------------|
then: guitar 1 (guitar 2 plays previous progression once):
-----------------------------------------|---12--12\-7/-----12--12\-7--7/8---------|-----------------------------------------|-----------------------------------------|-----------------------------------------|-0-----------------------------------x\--|
then: guitar 1:
----------------------------------------------|----12--12\-7/-----12--12\-7--7/8----------4--|----------------------------------------------|----------------------------------------------|-------------------------------------------3--|-0--------------------------------------------|
guitar 2:
----------------------------------------------|---------------------------------5-5-5-5---4--|------12-12-11\--7-7-7---4p0------------------|----------9------------------5----------------|------10----12\--5-5-5-----------3-3-3-3---3--|-0--------------------------------------------|
http://noknifetabs.f2g.net
Tap to rate this tab
 
# A B C D E F G H I J K L M N O P Q R S T U V W X Y Z