Youre Not Alone tab with lyrics by Nobuo Uematsu - Easy chords and tabs for guitar

Nobuo Uematsu – Youre Not Alone tab

                           You're not alone from FF9



|-8----------|-------------|-8--8--8-7-5--||------10----|-8--10-------|--------------||------------|--------9----|--------------||------------|-------------|--------------||------------|-------------|--------------||------------|-------------|--------------|
|-3--5-------|-12--12--12--10--|-8----8--7--|-5--7--8-7-5--||-------5----|-----------------|------------|--------------||------------|-----------------|------------|--------------||------------|-----------------|------------|--------------||------------|-----------------|------------|--------------||------------|-----------------|------------|--------------|
|-7--------|-8----------|-------------|-8--8--8-7-5--||----------|------10----|-8--10-------|--------------||----------|------------|--------9----|--------------||----------|------------|-------------|--------------||----------|------------|-------------|--------------||----------|------------|-------------|--------------|
|-3--7--12----|-12--12--12--10--|-8----8--7--|-5--8--7-5-3--||-------------|-----------------|------------|--------------||-------------|-----------------|------------|--------------||-------------|-----------------|------------|--------------||-------------|-----------------|------------|--------------||-------------|-----------------|------------|--------------|
|-5--------|-8----------|-------------|-8--8--8-7-5--||----------|------10----|-8--10-------|--------------||----------|------------|--------9----|--------------||----------|------------|-------------|--------------||----------|------------|-------------|--------------||----------|------------|-------------|--------------|
|-3--5-------|-12--12--12--10--|-8----8--7--|-5--7--8-7-5--||-------5----|-----------------|------------|--------------||------------|-----------------|------------|--------------||------------|-----------------|------------|--------------||------------|-----------------|------------|--------------||------------|-----------------|------------|--------------|
|-7--------|-8----------|-------------|-8--8--8-7-5--||----------|------10----|-8--10-------|--------------||----------|------------|--------9----|--------------||----------|------------|-------------|--------------||----------|------------|-------------|--------------||----------|------------|-------------|--------------|
|-3--7--12----|-12--12--12--10--|-8----8--7--|-5--8--7-5-3-5||-------------|-----------------|------------|--------------||-------------|-----------------|------------|--------------||-------------|-----------------|------------|--------------||-------------|-----------------|------------|--------------||-------------|-----------------|------------|--------------|
Distorted bit
|-----------|------5----|-3----------|------------||-----1--0--|-----------|------5-----|-3----3--1--||-----------|-2---------|---------5--|------------||-----------|-----------|------------|------------||-----------|-----------|------------|------------||-----------|-----------|------------|------------|
|----0-------|------------|-0----8----|-7----||-3----------|------1---3-|-----------|------||-------2----|--2---------|-----------|------||------------|------------|-----------|------||------------|------------|-----------|------||------------|------------|-----------|------|
|-(7)--------|-5--3--5--7--|-8----------|------------||------------|-------------|------8-----|------------||------------|-------------|---------9--|-7----7--5--||------------|-------------|------------|------------||------------|-------------|------------|------------||------------|-------------|------------|------------|
|------------|-------------|------------|-------||-3--5-------|-------------|------------|-------||-------2----|-------------|------------|-------||------------|-7------9-10-|-9----------|-------||------------|-------------|------10----|-12----||------------|-------------|------------|-------|
|----------------|------5----|-3----------|------------||----------------|-----------|------5-----|-3----3--1--||----------------|-----------|---------5--|------------||---------10--9--|-7---------|------------|------------||-(12)-----------|-----------|------------|------------||----------------|-----------|------------|------------|
|------------|------------|------8----|-7----||-3--5-------|-----1---3--|-5---------|------||------------|------------|-----------|------||-------7----|-7----------|-----------|------||------------|------------|-----------|------||------------|------------|-----------|------|
|-(7)--------|-5--3--5--7--|-8----------|------------||------------|-------------|------8-----|------------||------------|-------------|---------9--|-7----7--5--||------------|-------------|------------|------------||------------|-------------|------------|------------||------------|-------------|------------|------------|
|------------|-------------|------------|-------||-3--5-------|-------------|------------|-------||------------|-------------|------------|-------||-------7----|-7------9-10-|-9----------|-------||------------|-------------|------10----|-12----||------------|-------------|------------|-------|
Back to clean
|---------|-8----------|-------------|-8--8--8-7-5--||---------|------10----|-8--10-------|--------------||---------|------------|--------9----|--------------||---------|------------|-------------|--------------||---------|------------|-------------|--------------||---------|------------|-------------|--------------|
|-3--5-------|-12--12--12--10--|-8----8--7--|-5--7--8-7-5--||-------5----|-----------------|------------|--------------||------------|-----------------|------------|--------------||------------|-----------------|------------|--------------||------------|-----------------|------------|--------------||------------|-----------------|------------|--------------|
|-7--------|-8----------|-------------|-8--8--8-7-5--||----------|------10----|-8--10-------|--------------||----------|------------|--------9----|--------------||----------|------------|-------------|--------------||----------|------------|-------------|--------------||----------|------------|-------------|--------------|
|-3--7--12----|-12--12--12--10--|-8----8--7--|-5--8--7-5-3--||-------------|-----------------|------------|--------------||-------------|-----------------|------------|--------------||-------------|-----------------|------------|--------------||-------------|-----------------|------------|--------------||-------------|-----------------|------------|--------------|
|-5--------|-8----------|-------------|-8--8--8-7-5--||----------|------10----|-8--10-------|--------------||----------|------------|--------9----|--------------||----------|------------|-------------|--------------||----------|------------|-------------|--------------||----------|------------|-------------|--------------|
|-3--5-------|-12--12--12--10--|-8----8--7--|-5--7--8-7-5--||-------5----|-----------------|------------|--------------||------------|-----------------|------------|--------------||------------|-----------------|------------|--------------||------------|-----------------|------------|--------------||------------|-----------------|------------|--------------|
|-7--------|-8----------|-------------|-8--8--8-7-5--||----------|------10----|-8--10-------|--------------||----------|------------|--------9----|--------------||----------|------------|-------------|--------------||----------|------------|-------------|--------------||----------|------------|-------------|--------------|
|-3--7--12----|-12--12--12--10--|-8----8--7--|-5--8--7-5-3-5||-------------|-----------------|------------|--------------||-------------|-----------------|------------|--------------||-------------|-----------------|------------|--------------||-------------|-----------------|------------|--------------||-------------|-----------------|------------|--------------|
By moonspray Search for me on youtube
Please rate this tab:
x1.0