Nofx - We Threw Gasoline On The Fire & Now We Have Stumps For Arms An tab

NOFX 

We threw Gasoline on the Fire and Now we have Stumps for Arms and no legs

tabbed by alan stewart

Intro (guitar I) 

|----------------------|----------------------|-2---7--7--7-2-2------|-2---7--7--7-2-2------|-0---5--5--5-0-0------|----------------------
Intro (lead guitar) X 4
|----------------------|----------------------|-9--7-7--6------------ end on |--9-------------------|---------------------- |----------------------|-7--5-5--4------------ |--7-------------------|---------------------- |----------------------
Verse (both) part A
|------------------------|------------------------|----------------5-5-----|-7-7--5-5--3-3--5-5--5-- |-7-7--5-5--3-3--3-3--5-- |-5-5--3-3--1-1-------3--
part B
-------------------------------------------------------------5-5--3-3---------------5------5-5--3-3--5-5--3-3--5--5------3-3--1-1--5-5--3-3--5--3----------------3-3--1-1--3--------
second time
---------------------------------------------------------------5-5--3-3-----------------------5-5--3-3--5-5--3-3--5-3-5------3-3--1-1--5-5--3-3--5-3-4----------------3-3--1-1--3-1-3-----
Verse (lead) part A
|------------------------------|------------------------------|-14-14--16-14-17-16-----------|------------------------------|-12-12--14-14-15-14-----------|------------------------------
part B
|------------------------------|------------------------------|-12--10--7--9-----------------|------------------------------|-10--8---5--7-----------------|------------------------------
chorus (both)
|-----------------------------------|-----------------------------------|-5-3---5---5--------------------5--|-5-3-3-5---5-5-3-7--3-5-7---3-5-5--|-3-1-3-3---3-5-3-7--3-5-7---3-5-3--|-----1-------3-1-5--1-3-5---1-3----
Lead fill
|------------------------------|------------------------------|------------------------------|------------------------------|------7-8---------------------|-8-10-----10-8-10-------------
Bridge (both)
|---------------------------------------------------------------- ||---------------------------------------------------------------- ||-5-5-xxxx-----------xxxx-------5-5-xxxx-------------------------*||-5-5-xxxx-5-5-5-3-3-xxxx-3-3-5-5-5-xxxx-5-5-3-3-5--3-3-5-5------*||-3-3-xxxx-5-5-5-3-3-xxxx-3-3-5-3-3-xxxx-5-5-3-3-5--3-3-5-5------ ||----------3-3-3-1-1-xxxx-1-1-3----------3-3-1-1-3--1-1-3-3------ |
Tap to rate this tab
 
# A B C D E F G H I J K L M N O P Q R S T U V W X Y Z