Nofx - S And M Airlines tab

Artist:NoFX
Album:S&M Airlines
Year:1997
Tabbed By:NoFX_2525

01. Day To Daze
02. Five Feet Under
03. Professional Crastination
04. Mean People Suck
05. Vanilla Sex
06. S & M Airlines
07. Drug Free America
08. Life O'Riley
09. You Drink You Drive You Spill
10. Scream For Change
11. Jaundiced Eye
12. Go Your Own Way


01. Day To Daze:
intro - riff

|-------------||-------------||-------------||-------------||-----------3-||-5-3-0-3-5---|
intro 2
|----------------------------------------------------------------------||----------------------------------------------------------------------||-14-12-14-12-14/17-14-12-14-12-14/17-14-12-14-12-14/17-14/17/19\14/17-||-14-12-14-12-14/17-14-12-14-12-14/17-14-12-14-12-14/17-14/17/19\14/17-||-12-10-12-10-12/15-12-10-12-10-12/15-12-10-12-10-12/15-12/15/17\12/15-||----------------------------------------------------------------------|
verse
|-----------------------------------------------------------------||-----------------------------------------------------------------||---------------------------------5-5-5-5-5-5-5-5-----------------||-7-7-7-7-7-7-7-7-3-3-3-3-3-3-3-3-5-5-5-5-5-5-5-5-5-5-5-5-5-5-5-5-||-7-7-7-7-7-7-7-7-3-3-3-3-3-3-3-3-3-3-3-3-3-3-3-3-5-5-5-5-5-5-5-5-||-5-5-5-5-5-5-5-5-1-1-1-1-1-1-1-1-----------------3-3-3-3-3-3-3-3-|
|-----------------------------------------------------------------||-----------------------------------------------------------------||-5-5-5-5-5-5-5-5-------------------------------------------------||-5-5-5-5-5-5-5-5-7-7-7-7-7-7-7-7-3-3-3-3-3-3-3-3-5-5-5-5-5-5-5-5-||-3-3-3-3-3-3-3-3-7-7-7-7-7-7-7-7-3-3-3-3-3-3-3-3-5-5-5-5-5-5-5-5-||-----------------5-5-5-5-5-5-5-5-1-1-1-1-1-1-1-1-3-3-3-3-3-3-3-3-|
chorus
|---------------------------||---------------------------||-5-5-2--2-2-2--------------||-5-5-2--2-2-2-5-5-3--3-3-3-||-3-3-0--0-0-0-5-5-3--3-3-3-||--------------3-3-1--1-1-1-|
outro
|------------------------------------------||------------------------------------------||------------------------------------------||------------------------------------------||--------------------3---------------8-7-3-||-5-5-5-5-3h5-5--5-5---5-5-5-5-3h5-5-------|
lyrics i trusted you at least i thought i could i tried to believe when you said i got a better job i can pay you back real soon, no! i don't do those drugs no more i know my luck has changed my lifestyle has rearranged i'm on my feet you'll never change your ways living from day to daze why don't you fade away i've heard all this before when you were sleeping on my floor you said only for a day but as those three weeks passed my patience didn't last nor my food 02.Five Feet Under: h - hammer on p - pull off intro
|--------------------------------------------------------------------||--------------------------------------------------------------------||--------------------------------------------------------------------||-7-7-7-7-----------5-5-5-5------------3-3-3-3-5-4-2-2-2-2-----------||-7-7-7-7-5h7p5h7p5-5-5-5-5-3h5p3h5p3--3-3-3-3-5-4-2-2-2-2-2h3p2h3p2-||-5-5-5-5-----------3-3-3-3------------1-1-1-1-3-2-0-0-0-0-----------|
|-------------------------------------------------------------------||-------------------------------------------------------------------||---------------------------------------------------------------4-5-||-7-7-7-7-----------5-5-5-5-----5-5-3-3-3-3-5-4-2-2-2-2-2-2-2-2-4-5-||-7-7-7-7-5h7p5h7p5-5-5-5-5-3h5-----3-3-3-3-5-4-2-2-2-2-2-2-2-2-2-3-||-5-5-5-5-----------3-3-3-3---------1-1-1-1-3-2-0-0-0-0-0-0-0-0-----|
verse
|-------------------------------------------------------------------||-------------------------------------------------------------------||---------------------------------------------------------------4-5-||-7-7-7-7-7-7-7-7-5-5-5-5-5-5-5-5-3-3-3-3-3-3-3-3-2-2-2-2-2-2-2-4-5-||-7-7-7-7-7-7-7-7-5-5-5-5-5-5-5-5-3-3-3-3-3-3-3-3-2-2-2-2-2-2-2-2-3-||-5-5-5-5-5-5-5-5-3-3-3-3-3-3-3-3-1-1-1-1-1-1-1-1-0-0-0-0-0-0-0-----|
chorus
|-----------------------------------------------||-----------------------------------------------||---------------4-7-7-7-7-10-10-10-10-------9-9-||-7-7-7-7-5-2-2-4-7-7-7-7-10-10-10-10-10-10-9-9-||-7-7-7-7-5-2-2-2-5-5-5-5--8--8--8--8-10-10-7-7-||-5-5-5-5-3-0-0------------------------8--8-----|
|---------------------||---------------------||-9-9-10-10-----------||-9-9-10-10-10-10-9-9-||-7-7--8--8-10-10-9-9-||------------8--8-7-7-|
lyrics five feet under, he's got one foot in the grave would you look at him i think he's lost it i don't think that he can be saved he's got a down payment on his tombstone he's not alone his whole life has been out on a limb, just look at him watch him get smashed and race bikes so fast just don't laugh, what will it say on his epitaph here he lies may he rest in peace hung on to life by the skin of his teeth pushing his luck thru the bottle he drinks he's got a date with his maker and he doesn't want to be late make no mistake he's a good friend so why might his life have to end, my friend i don't want to see you dead i don't want to see him dead i don't want to see him dead i don't want to see him dead 03.Professional Crastination: intro
|---------------------------------------------------------------||-5-5-x-5-5-5-5-x-8-8-x-8-8-8-8-x-5-5-x-5-5-5-5-x-6-6-x-6-6-6-6-||-4-4-x-4-4-4-4-x-7-7-x-7-7-7-7-x-6-6-x-6-6-6-6-x-5-5-x-5-5-5-5-||---------------------------------------------------------------||---------------------------------------------------------------||---------------------------------------------------------------|
verse
|---------------------------------------------------------------||---------------------------------------------------------------||-9-9-9-9-12-11-9--9-9-9-9-12-11-9--9-9-9-9-12-11-9-7-7-7-5-5-5-||-9-9-9-9-12-11-9--9-9-9-9-12-11-9--9-9-9-9-12-11-9-7-7-7-5-5-5-||-7-7-7-7-10--9-7--7-7-7-7-10--9-7--7-7-7-7-10--9-7-5-5-5-3-3-3-||---------------------------------------------------------------|
chorus
|---------------------------------------------||---------------------------------------------||-9-9-9-9-12-12-12-12-14-14-14-14-16-16-16-16-||-9-9-9-9-12-12-12-12-14-14-14-14-16-16-16-16-||-7-7-7-7-10-10-10-10-12-12-12-12-14-14-14-14-||---------------------------------------------|
bridge
|----------------------------------------------------------------|----------------------------------------------------------------|-9-9-9-9-12--11--12--11-7-7-7-7-9-9-9-9--9-9-9-9-12--11--12--11-|-9-9-9-9-12--11--12--11-7-7-7-7-9-9-9-9--9-9-9-9-12--11--12--11-|-7-7-7-7-10---9--10---9-5-5-5-5-7-7-7-7--7-7-7-7-10---9--10---9-|----------------------------------------------------------------
-----------------| -----------------| -7-7-7-7-5-5-4-4-| -7-7-7-7-5-5-4-4-| -5-5-5-5-3-3-2-2-| -----------------|
bridge 2 - (why can't we....)
|-------------------------------------------------||-------------------------------------------------||-----7:------9:----------7-7-7-7---------9-9-9-9-||-5:--7:--7:--9:--5-5-5-5-7-7-7-7-7-7-7-7-9-9-9-9-||-5:--5:--7:--7:--5-5-5-5-5-5-5-5-7-7-7-7-7-7-7-7-||-3:------5:------3-3-3-3---------5-5-5-5---------|
lyrics can't you see how easy it becomes pro crastinate, were professionals get things done, you can't, to busy having fun were professionals professional crastination its a way of life if you've got lots of time put it off cause tomarrow sounds much better then today always late , not sometimes occassionaly consistently, were professionals professional crastination we're living in a procrasti-nation why can't we ever be on time? professional crastination it's a way of life if you've got lots of time professional crastination we're living in a procrasti-nation professional crastination 04.Mean People Suck: intro
|------------------------------------------------------------------||------------------------------------------------------------------||-9-7-7---9-7-7--------------------7-9-7---------------------7-9-7-||-9-7---7-9-7---7--9-7h8-----9-7-9---------9p8p7-7-----9-7h9-------||-7-5-----7-5------------9-7-----------------------9-7-------------||----------------------------------------5-------------------------|
main riff
|-------------------------------|----------------------------------------||-------------------------------|----------------------------------------||-12-12-12-12-12-12-12-12-12-12-|--9-12-9-12-14-12-9-9-7-9-12-9-12-14-12-||-12-12-12-12-12-12-12-12-12-12-|--9-12-9-12-14-12-9-9-7-9-12-9-12-14-12-||-10-10-10-10-10-10-10-10-10-10-|--7-10-7-10-12-10-7-7-5-7-10-7-10-12-10-||-------------------------------|----------------------------------------|
bridge
|-----------------------------------------------------------------||-----------------------------------------------------------------||--------------------------12-12-12-12-12-12-12-12-12-12-12-12-12-||-2-6-7-9-7-6-2-6-7-9-7-6--12-12-12-12-12-12-12-12-12-12-12-12-12-||-2-6-7-9-7-6-2-6-7-9-7-6--10-10-10-10-10-10-10-10-10-10-10-10-10-||-0-4-5-7-5-4-0-4-5-7-5-4-----------------------------------------|
bridge 2
|-----------------------------------------||-----------------------------------------||-------------12-12-------------9-9-9-9-9-||-2-6-7-9-7-6-12-12-2-6-7-9-7-6-9-9-9-9-9-||-2-6-7-9-7-6-10-10-2-6-7-9-7-6-7-7-7-7-7-||-0-4-5-7-5-4-------0-4-5-7-5-4-----------|
lyrics people suck, people suck, mean people suck, people suck suck, they suck, they suck, they suck people suck, people suck, mean people suck, people suck suck, they suck, they suck, they suck 05.Vanilla Sex: intro/verse
|-0--0-2-2-2-2-2-0--0-2-2-2-2-2----------------------------------||-1--1-3-3-3-3-3-1--1-3-3-3-3-3----------------------------------||-0--0-2-2-2-2-2-0--0-2-2-2-2-2-2-2-2-2-2-2-2-2--2-2-2-2-2-2-2-2-||-2--2-0-0-0-0-0-2--2-0-0-0-0-0-2-2-2-2-2-2-2-2--2-2-2-2-2-2-2-2-||-3--3-----------3--3-----------0-0-0-0-0-0-0-0--0-0-0-0-0-0-0-0-||----------------------------------------------------------------|
verse 2
|-------------------------------------------------||-------------------------------------------------||-------------------------------------------------||-3-3-3-3-5-5-5-5-2-2-2-5-7-7-7-5-3-3-3-3-5-5-5-5-||-3-3-3-3-5-5-5-5-2-2-2-5-7-7-7-5-3-3-3-3-5-5-5-5-||-1-1-1-1-3-3-3-3-0-0-0-3-5-5-5-3-1-1-1-1-3-3-3-3-|
chorus
|---------------------------------||---------------------------------||-5-5-7-7-5-5-7-7-----------------||-5-5-7-7-5-5-7-7-7-7-7-7-7-7-7-7-||-3-3-5-5-3-3-5-5-7-7-7-7-7-7-7-7-||-----------------5-5-5-5-5-5-5-5-|
lyrics don't ever take away from me my pornography we obviously don't agree on what's obscene i have the right to chose what i want to see and read don't try to take away from me my right to privacy what i do is no ones business but me so stay in your missionary position i hope that you get bored to death there's no way i'm going thru life having vanilla sex the governments trying to get in your bedroom you'd better lock your door and close your shades because there could be someone watching you today why do you try to make things illegal why do we have to be twenty-one are you afraid that people are having too much fun why do you care what i do in my bedroom why do you want to know how i screw it seems to me you've got nothing better to do 06.S & M Airlines: intro
|-----------------------------------------------------||-10-x-x-10-x-x-10-x-x-10-x-x-10-x-x-10-x-x-10-x-x-10-||--9-x-x--9-x-x--9-x-x--9-x-x--9-x-x--9-x-x--9-x-x--9-||--7-x-x--7-x-x--7-x-x--7-x-x--7-x-x--7-x-x--7-x-x--7-||--7-x-x--7-x-x--7-x-x--7-x-x--7-x-x--7-x-x--7-x-x--7-||-----------------------------------------------------|
|-9-8h9p8-9----9-8h9p8-9----9-8h9p8-8----9-8h9-9-8-------------------||-----------10-----------10-----------10-----------9-----------------||------------9------------9------------9-------------------5---5-----||------------7------------7------------7-------------5/7-7---7---7-5-||------------7------------7------------7-----------------------------||--------------------------------------------------------------------|
|-------------------------------------------------------------10-8----||------------------------------------------------------------------10-||-------------------------------------------------------5-7-9---------||-----------------------------------------------------7---------------||-7-7-7-7-9-9-9-9-10-10-10-10-12-12-12-12-7-5-7-5-3-2-----------------||---------------------------------------------------------------------|
|------------------------------------------------------------------------||------------------------------------------------------------------------||-----7-9-14-12-14-12-14-16-17-16-14-16-17-17-19-17-16-12-19-17-16-14-12-||-7-7-7-9-14-12-14-12-14-16-17-16-14-16-17-17-19-17-16-12-19-17-16-14-12-||-7-7-5-7-12-10-12-10-12-14-15-14-12-14-15-15-17-15-14-10-17-15-14-12-10-||-5-5--------------------------------------------------------------------|
verse |-----------------------------------------------------------------| Sorry Couldnt Find THe Lyrics for this song! :( 07.Drug Free America: intro riff
|-----------------------------------------------------------------||-----------------------------------------------------------------||-----------------------------------------------------------------||-7p0h7p0h7p0h7p0-8p0h8p0h8p0h8p0-9p0h9p0h9p0h9p0-8p0h8p0h8p0h8p0-||-----------------------------------------------------------------||-----------------------------------------------------------------|
|------------------------------------------------------------------||------------------------------------------------------------------||------------------------------------------------------------------||-7p0h7-7--8p0h8p0h8p0h8p0-9p0h9p0h9p0h9p0-8p0h8p0h8p0h8p0-7p0h7-7-||-------5--------------------------------------------------------5-||------------------------------------------------------------------|
|-------------------------------------------------||-------------------------------------------------||-------------------------------------------------||-8p0h8p0h8p0h8p0-9p0h9p0h9p0h9p0-8p0h8p0h8p0h8p0-||-------------------------------------------------||-------------------------------------------------|
after the two guitars play
guitar 1|-----------------------------------------------------------------||-----------------------------------------------------------------||-7-7-7-7-7-7-7-7-------------------------------------------------||-7-7-7-7-7-7-7-7-8-8-8-8-8-8-8-8-9-9-9-9-9-9-9-9-8-8-8-8-8-8-8-8-||-5-5-5-5-5-5-5-5-8-8-8-8-8-8-8-8-9-9-9-9-9-9-9-9-8-8-8-8-8-8-8-8-||-----------------6-6-6-6-6-6-6-6-7-7-7-7-7-7-7-7-6-6-6-6-6-6-6-6-|
while guitar 2 plays|-----------------------------------------------------------------||-----------------------------------------------------------------||-----------------------------------------------------------------||-7p0h7p0h7p0h7p0-8p0h8p0h8p0h8p0-9p0h9p0h9p0h9p0-8p0h8p0h8p0h8p0-||-----------------------------------------------------------------||-----------------------------------------------------------------|
after play
|-----------------------------------------------------||-----------------------------------------------------||-9-7-7--7-9-9-10-7-7--7-9-9-10-7-7--7-9-9-10-7-7-7-7-||-----------------------------------------------------||-----------------------------------------------------||-----------------------------------------------------|
|-----------------------------------------------------||-----------------------------------------------------||-9-7-7--7-9-9-10-7-7--7-9-9-10-7-7--7-9-9-10-7-7-7-7-||-----------------------------------------------------||-----------------------------------------------------||-----------------------------------------------------|
then....
|-------------------------------------------------------------------------||-------------------------------------------------------------------------||-7-7-7-7-----------------------------------------7-7-7-7-----------------||-7-7-7-7-9-8-8-8-8-8-9-8-9-9-9-9-9-8-8-8-8-8-9-8-7-7-7-7-9-8-8-8-8-8-9-8-||-5-5-5-5-----8-8-8-8-----9-9-9-9-----8-8-8-8-----5-5-5-5-----8-8-8-8-----||-------------6-6-6-6-----7-7-7-7-----6-6-6-6-----------------6-6-6-6-----|
|-------------------------------------------------------------------------||-------------------------------------------------------------------------||-------------------------7-7-7-7-----------------------------------------||-9-9-9-9-9-8-8-8-8-8-9-8-7-7-7-7-9-8-8-8-8-8-9-8-9-9-9-9-9-8-8-8-8-8-9-8-||-9-9-9-9-----8-8-8-8-----5-5-5-5-----8-8-8-8-----9-9-9-9-----8-8-8-8-----||-7-7-7-7-----6-6-6-6-----------------6-6-6-6-----7-7-7-7-----6-6-6-6-----|
|-------------------------------------------------||-------------------------------------------------||-7-7-7-7-----------------------------------------||-7-7-7-7-9-8-8-8-8-8-9-8-9-9-9-9-9-8-8-8-8-8-9-8-||-5-5-5-5-----8-8-8-8-----9-9-9-9-----8-8-8-8-----||-------------6-6-6-6-----7-7-7-7-----6-6-6-6-----|
then...
|-----------------------------------------------------------------||-----------------------------------------------------------------||-7-7-7-7-7-7-7-7-------------------------------------------------||-7-7-7-7-7-7-7-7-8-8-8-8-8-8-8-8-9-9-9-9-9-9-9-9-8-8-8-8-8-8-8-8-||-5-5-5-5-5-5-5-5-8-8-8-8-8-8-8-8-9-9-9-9-9-9-9-9-8-8-8-8-8-8-8-8-||-----------------6-6-6-6-6-6-6-6-7-7-7-7-7-7-7-7-6-6-6-6-6-6-6-6-|
a couple of times, then...
|----------------------------------------------------------------||----------------------------------------------------------------||-7-7-----------------------------7-7----------------------------||-7-7--8-8-6-8-8-10-10-8-8-6-8-8--7-7--8-8-6-8-8-10-10-8-8-6-8-8-||-5-5--8-8-6-8-8-10-10-8-8-6-8-8--5-5--8-8-6-8-8-10-10-8-8-6-8-8-||------6-6-4-6-6--8--8-6-6-4-6-6-------6-6-4-6-6--8--8-6-6-4-6-6-|
then the verse kicks in (finally)
|--------------------------------------------------||--------------------------------------------------||-7-7-10-12-10-7-7-10-12-10-7-7-10-12-10-7-7-----5-||-7-7-10-12-10-7-7-10-12-10-7-7-10-12-10-7-7-5h7---||-5-5--8-10--8-5-5--8-10--8-5-5--8-10--8-5-5-------||--------------------------------------------------|
then play the stuff above next... chorus
|-------------------------------------------------------------------------||-------------------------------------------------------------------------||-7-7-----5-9-9-----7-10-9-7-5-2-5-7----------7-7-7---------7-7-7---------||-7-7-5h7---9-9-7h9---10-9-7-5-2-5-7--7-7-7-7-7-7-7-7-7-7-7-7-7-7-7-7-7-7-||-5-5-------7-7--------8-7-5-3-0-3-5--7-7-7-7-5-5-5-7-7-7-7-5-5-5-7-7-7-7-||-------------------------------------5-5-5-5-------5-5-5-5-------5-5-5-5-|
|------------------------------------------||------------------------------------------||-7-7-7-7-10-9-7-5-2-5-7-10-12-14-12-10-7--||-7-7-7-7-10-9-7-5-2-5-7-10-12-14-12-10-7--||-5-5-5-5--8-7-5-3-0-3-5--8-10-12-10--8-5--||------------------------------------------|
next we have...
|-------------------------------------------------------------------------||-------------------------------------------------------------------------||-7-7-7-7-7-7-7-7-----------------10-10-10-10-10-10-10-10-7-7-7-7-7-7-7-7-||-7-7-7-7-7-7-7-7-8-8-8-8-8-8-8-8-10-10-10-10-10-10-10-10-7-7-7-7-7-7-7-7-||-5-5-5-5-5-5-5-5-8-8-8-8-8-8-8-8--8--8--8--8--8--8--8--8-5-5-5-5-5-5-5-5-||-----------------6-6-6-6-6-6-6-6-----------------------------------------|
also played a couple of times, then...(drum roll.......) the outro (whew!)
|---------------------------------||---------------------------------||-7-7-7-7-10-9-7-5-2-5-7-----7-7--||-7-7-7-7-10-9-7-5-2-5-7-8-5-7-7--||-5-5-5-5--8-7-5-3-0-3-5-8-5-5-5--||------------------------6-3------|
lyrics we believe in a drug free america a drug free america for me that's the way we believe the way it should be drug free america for me live in amsterdamn where drugs are bought and sold legally lets take it one step further and make them all for free drug free america for me say "nope to dope" when it's not free say "ugh to drugs" save your money don't listen to facts just sit backand relax and help make our country drug free 08.Life 0'Riley: intro - bass verse - guitar 1 guitar 2 - little riff during verse
|-3-3-3-3-3-3-| - play this |------------| |-4-4-4-4-4-4-| throughout |-3h5p3---3--||-------------| the song |-------5----||-------------| until chorus |------------||-------------| |------------||-------------| |------------|
chorus - many different rhythms including palm mute, but these are the chords
|-----------------||-----------------||---------7-------||-2---9---7---7---||-2---9---5---7---||-0---7-------5---|
lyrics i sit in my easy chair i've got so much time to spare cause i know in my future days i'll have my lionshare theres nothing i like better than getting something for nothing then someone will tell you that you can't get nothing for free obviously they don't know me you can have your cake and eat it too and there's plenty of free lunch for you if you think you're getting cheated then you don't have a clue you don't know where you are or what to do i live the lifestyle they speak of so highly i live the life... the life of riley 09.You Drink You Drive You Spill: intro
|------------------------||------------------------||-----5:--7-9-12-14-9-9--||-7:--5:--7-9-12-14-9-9--||-7:--3:--5-7-10-12-7-7--||-5:---------------------|
verse
|----------------------------------||----------------------------------||---------5-5-5-5------------------||-7-7-7-7-5-5-5-5-3-3-3-3-5-5-5-5--||-7-7-7-7-3-3-3-3-3-3-3-3-5-5-5-5--||-5-5-5-5---------1-1-1-1-3-3-3-3--|
chorus
|-----------------------------------------------------|-----------------------------------------------------|-----------------------------------------------------|-3-3-3-5-5-5-7-7-7-7-7-7-7-3-3-3-5-5-5-7-7-7-7-7-7-7-|-3-3-3-5-5-5-7-7-7-7-7-7-7-3-3-3-5-5-5-7-7-7-7-7-7-7-|-1-1-1-3-3-3-5-5-5-5-5-5-5-1-1-1-3-3-3-5-5-5-5-5-5-5-
|-------------------------|-------------------------|-------------5-5-5-------|-3-3-3-5-5-5-5-5-5-9-9-9-|-3-3-3-5-5-5-3-3-3-9-9-9-|-1-1-1-3-3-3-------7-7-7-
|----------------------------------------------------------|----------------------------------------------------------|---------------5-5-5-5-5-5-5----------------5-5-5-5-5-5-5-|-3-3-3-5-5-5---5-5-5-5-5-5-5--3-3-3-5-5-5---5-5-5-5-5-5-5-|-3-3-3-5-5-5---3-3-3-3-3-3-3--3-3-3-5-5-5---3-3-3-3-3-3-3-|-1-1-1-3-3-3------------------1-1-3-3-3-3-----------------
|-------------------------------------------------||-------------------------------------------------||---------------5-5-5-5-5-5-5-5--5-5-5-5-4-4-4-4--||-3-3-3-5-5-5---5-5-5-5-5-5-5-5--5-5-5-5-4-4-4-4--||-3-3-3-5-5-5---3-3-3-3-3-3-3-3--3-3-3-3-2-2-2-2--||-1-1-1-3-3-3-------------------------------------|
lyrics i say don't drink and drive you might spill your drink before you get behind that wheel, just stop and think you can take your chances but there's so much to lose another bumpy road, there's so much wasted booze i'm not so worried about how many i kill i'm much more concerned with how much beer i spill 35% of accidents are caused by pixilated the other 65% are not alcohol related what does this tell us about the drunk drivers they seem to have a better record then the sober team 10.Scream For Change: intro
|-------------------||-------------------||-9---5--4----------||-9---5--4--------2-||-7---3--2--------2-||-----------3-2-0-0-|
|---------------------------------||---------------------------------||---------9-7-5-x-4-x-5-x-x-------||-x-x-x-2-9-7-5-x-4-x-5-x-x-------||-x-x-x-2-7-5-3-x-2-x-3-x-x-------||-x-x-x-0-------------------3-2-0-|
verse
pm________________________________________________________________||-----------------------------------------------------------------||-----------------------------------------------------------------||-----------------------------------------------------------------||-----------------3-3-3-3-------------------------3-3-3-3---------||-2-2-2-2-5-5-5-5-1-1-1-1-3-3-3-3-2-2-2-2-5-5-5-5-1-1-1-1-3-3-3-3-||-0-0-0-0-3-3-3-3---------1-1-1-1-0-0-0-0-3-3-3-3---------1-1-1-1-|
screaminforchange...
|---------------------------------------------------------------------||---------------------------------------------------------------------||---------------------------------------------------------------------||-9-11-12-11-12-14-16-9-11-12-11-9-11-12-11-9-11-12-11-11-12-14-16-19-||-7--9-10--9-10-12-14-7--9-10--9-7--9-10--9-7--9-10--9--9-10-12-14-17-||---------------------------------------------------------------------|
lyrics hey mister, can you spare some change? why? why? what do you want from me? are you hungry? uh, no i'm not hungry i'm just wonderin' if you can spare a quarter or a dime ohhhhh, the time? it's about 3:30 uh, no! not the time, i need a nickle or a dollar my car's broke screaming for change, screaming for change, screaming, screaming for change screaming for change, screaming for change, screaming, screaming for change lady can you spare any change? hey lady, can you spare a quarter? i said lady can you spare any change? hey get away from me, you're filthy go away i said lady can you spare any change? well how 'bout givin' me one of those cigarettes? i said lady can you spare any change? no, change, no, change, change, change, nooooooooooooooo! screaming for change, screaming, screaming, screaming for change screaming for change, screaming for change, screaming for change 11.Jaundiced Eye: intro
|---------------------------------------------------------------------||---------------------------------------------------------------------||---------------------------------------------------------------------||-10-7-7-7-7-7-7-7-10-7-7-7-7-7-7-7-10-7-7-7-7-7-7-7-10-7-7-7-7-7-7-7-||-10-7-7-7-7-7-7-7-10-7-7-7-7-7-7-7-10-7-7-7-7-7-7-7-10-7-7-7-7-7-7-7-||--8-5-5-5-5-5-5-5--8-5-5-5-5-5-5-5--8-5-5-5-5-5-5-5--8-5-5-5-5-5-5-5-|
then...
|--------------------------------------------------------------------------||--------------------------------------------------------------------------||-9-7-9-10-12-10-12-14-9-7-9-10-12-10-9-9-7-9-10-12-10-12-14-9-7-9-12-10-9-||-9-7-9-10-12-10-12-14-9-7-9-10-12-10-9-9-7-9-10-12-10-12-14-9-7-9-12-10-9-||-7-5-7--8-10--8-10-12-7-5-7--8-10--8-7-7-5-7--8-10--8-10-12-7-5-7-10--8-7-||--------------------------------------------------------------------------|
|---------------------------------------------------------------------------||---------------------------------------------------------------------------||-9-7-9-10-12-10-12-14-9-7-9-10-12-10-9-9-7-9-10-12-10-12-14-9-7-9-10-10-10-||-9-7-9-10-12-10-12-14-9-7-9-10-12-10-9-9-7-9-10-12-10-12-14-9-7-9-10-10-10-||-7-5-7--8-10--8-10-12-7-5-7--8-10--8-7-7-5-7--8-10--8-10-12-7-5-7--8--8--8-||---------------------------------------------------------------------------|
next...
|----------------------------------------------------------------------||----------------------------------------------------------------------||------------7-7-5------------7-7-5-------------7-7-5------------7-7-5-||-10-7-7-7-7-7-7-5-10-7-7-7-7-7-7-5-10-7-7-7-7--7-7-5-10-7-7-7-7-7-7-5-||-10-7-7-7-7-5-5-3-10-7-7-7-7-5-5-3-10-7-7-7-7--5-5-3-10-7-7-7-7-5-5-3-||--8-5-5-5-5--------8-5-5-5-5--------8-5-5-5-5---------8-5-5-5-5-------|
after that...
|-----------------------------------------------------------------||-----------------------------------------------------------------||-12-10-8-10-9-7------------------12-10-9-10-9-7------------------||-12-10-8-10-9-7-10-7-7-7-7-7-7-7-12-10-9-10-9-7-10-7-7-7-7-7-7-7-||-10--8-7--8-7-5-10-7-7-7-7-7-7-7-10--8-7--8-7-5-10-7-7-7-7-7-7-7-||-----------------8-5-5-5-5-5-5-5-----------------8-5-5-5-5-5-5-5-|
|-----------------------------------------------------------------||-----------------------------------------------------------------||-12-10-8-10-9-7------------------12-10-9-10-9-7-10-9-10-9-7------||-12-10-8-10-9-7-10-7-7-7-7-7-7-7-12-10-9-10-9-7-10-9-10-9-7-10---||-10--8-7--8-7-5-10-7-7-7-7-7-7-7-10--8-7--8-7-5--8-7--8-7-5-10---||-----------------8-5-5-5-5-5-5-5-----------------------------8---|
and later on...
|----------------------------------------------------------------------||----------------------------------------------------------------------||------------7-7-5------------7-7-5-------------7-7-5-10-9-10-9-7------||-10-7-7-7-7-7-7-5-10-7-7-7-7-7-7-5-10-7-7-7-7--7-7-5-10-9-10-9-7-10---||-10-7-7-7-7-5-5-3-10-7-7-7-7-5-5-3-10-7-7-7-7--5-5-3--8-7--8-7-5-10---||--8-5-5-5-5--------8-5-5-5-5--------8-5-5-5-5---------------------8---|
later still...
|--------------------------||--------------------------||------------6-6-4-6-4-7-6-||-7--7--7--7-6-------------||-7--7--7--7-4-------------||-5--5--5--5---------------|
versepm_______________| |_______________||-----------------------------------------------------------------||-----------------------------------------------------------------||------------------6--6-4-6-4-7-6------------------6--6-4-6-4-7-6-||-9-9-9-9-9-9-9-9--6--------------9-9-9-9-9-9-9-9--6--------------||-9-9-9-9-9-9-9-9--4--------------9-9-9-9-9-9-9-9--4--------------||-7-7-7-7-7-7-7-7-----------------7-7-7-7-7-7-7-7-----------------|
then...
|---------------------------------------------------------------------||---------------------------------------------------------------------||-5-5-5-5---------10-10-10-10-7-7-7-7-----------------5-5-5-5-7-7-7-7-||-5-5-5-5-7-7-7-7-10-10-10-10-7-7-7-7-7-7-7-7-7-7-7-7-5-5-5-5-7-7-7-7-||-3-3-3-3-7-7-7-7--8--8--8--8-5-5-5-5-7-7-7-7-7-7-7-7-3-3-3-3-5-5-5-5-||---------5-5-5-5---------------------5-5-5-5-5-5-5-5-----------------|
|--------------------------------------------------------||--------------------------------------------------------||-5-5-10-10-10-10-10-10-10-10-----14-12-----12-10-----12-||-5-5-10-10-10-10-10-10-10-10-7-7-14-12-7-7-12-10-7-7-12-||-3-3--8--8--8--8--8--8--8--8-7-7-12-10-7-7-10--8-7-7-10-||-----------------------------5-5-------5-5-------5-5----|
later on...
|-----------------------------------------||-----------------------------------------||-5-5-10-9-10-7-5--7-9--9-5-7-10-10-10-10-||-5-5-10-9-10-7-5--7-9--9-5-7-10-10-10-10-||-3-3--8-7--8-5-3--5-7--7-3-5--8--8--8--8-||-----------------------------------------|
and after that...
|---------------------------------------------------------------------||---------------------------------------------------------------------||-5-5-5-5---------10-10-10-10-7-7-7-7-----------------5-5-5-5-7-7-7-7-||-5-5-5-5-7-7-7-7-10-10-10-10-7-7-7-7-7-7-7-7-7-7-7-7-5-5-5-5-7-7-7-7-||-3-3-3-3-7-7-7-7--8--8--8--8-5-5-5-5-7-7-7-7-7-7-7-7-3-3-3-3-5-5-5-5-||---------5-5-5-5---------------------5-5-5-5-5-5-5-5-----------------|
and then...
|-----------------------------------------------------------------------||-----------------------------------------------------------------------||-5-5-10-10-10-10-----14-12-----12-10-----12-----14-12-----12-10-----12-||-5-5-10-10-10-10-7-7-14-12-7-7-12-10-7-7-12-7-7-14-12-7-7-12-10-7-7-12-||-3-3--8--8--8--8-7-7-12-10-7-7-10--8-7-7-10-7-7-12-10-7-7-10--8-7-7-10-||-----------------5-5-------5-5-------5-5----5-5-------5-5-------5-5----|
outro
|-------------------------------||-------------------------------||-10-9-10-9-7-5-10-9-10-9-7-5---||-10-9-10-9-7-5-10-9-10-9-7-5-7-||--8-7--8-7-5-3--8-7--8-7-5-3-7-||-----------------------------5-|
lyrics black is beautiful white is so pure can you see a difference? all i see's a blur is one called a virtue how can you be sure ignorance the disease education the cure so how can you say that your proud of you race proud of your gender or proud of your faith facism, racism all starts out the same stop feeding the fire and smother the flame some people are smarter then others so dumb the reason behind this a cultural one and greatness isn't carried by blood so get off your high horse you're no better then us all seems infected that the infected spy as all looks yellow to the jaundiced eye you're the infected you can never deny you're arrogant, you're insolent, you're living a lie 12.Go Your Own Way: intro/verse
|----------------------------------------------------------|----------------------------------------------------------|-9-9-x-x-9-9-x-x-9-9-x-x-9-9------------------------------|-9-9-x-x-9-9-x-x-9-9-x-x-9-9--9-9-x-x-9-9-x-x-9-9-x-x-9-9-|-7-7-x-x-7-7-x-x-7-7-x-x-7-7--9-9-x-x-9-9-x-x-9-9-x-x-9-9-|------------------------------7-7-x-x-7-7-x-x-7-7-x-x-7-7-
----------------------------------------------------------| ----------------------------------------------------------| ------------------------------9-9-x-x-9-9-x-x-9-9-x-x-9-9-| -7-7-x-x-7-7-x-x-7-7-x-x-7-7--9-9-x-x-9-9-x-x-9-9-x-x-9-9-| -7-7-x-x-7-7-x-x-7-7-x-x-7-7--7-7-x-x-7-7-x-x-7-7-x-x-7-7-| -5-5-x-x-5-5-x-x-5-5-x-x-5-5------------------------------|
chorus
|-------------------------------------------------------------------------||-------------------------------------------------------------------------||-------------------------------------------------------------------------||-11-11-11-11-11-11-11-11-7-7-7-7-7-7-7-7-9-9-9-9-9-9-9-9-9-9-9-9-9-9-9-9-||-11-11-11-11-11-11-11-11-7-7-7-7-7-7-7-7-9-9-9-9-9-9-9-9-9-9-9-9-9-9-9-9-||--9--9--9--9--9--9--9--9-5-5-5-5-5-5-5-5-7-7-7-7-7-7-7-7-7-7-7-7-7-7-7-7-|
lyrics loving you isn't the right thing to do how can i change things that i feel if i could baby i would give you my world but how can i when you won't take them from me you can go your own way, go your own way you can call it another lonely day, another lonely day you can go your own way, go your own way tell me why everything turned 'round backing up, shaking that's all you wanna do if i could baby i'd give you my socks open up, everything's waiting for you you can go your own way, go your own way you can call it another lonely day, another lonely day you can go your own way, go your own way you can go your own way, go your own way you can call it another lonely day, another lonely day you can go your own way, go your own way ENJOY ALL YOU NoFX FANS!! GREAT ALBUM I JUST TABBED HERE!! PLEASE RATE.
Tap to rate this tab
 
# A B C D E F G H I J K L M N O P Q R S T U V W X Y Z