None More Black - Zero Tolerance Drum Policy tab

Artist: None More Black
Song: Zero Tolerance Drum Policy
Album: File Under Black
Tabber: Homie G

~ let ring

Guitar 1 tuning: Eadbge
Guitar 2 tuning: Dadbge


Intro 

Guitar 1 /Both Guitars\ |------------------|--------------||------------------|--------------||--9-9-9-11-11-7-7-|--------------||--9-9-9-11-11-7-7-|-5-5-5-5-5-5--||--7-7-7-9--9--5-5-|-5-5-5-5-5-5--||------------------|-3-3\2-2/3-3--|
Guitar 1 /Both Guitars\|------------------|--------------||------------------|--------------||--9-9-9-11-11-7-7-|--------------||--9-9-9-11-11-7-7-|-7-7-7-7-7-7--||--7-7-7-9--9--5-5-|-7-7-7-7-7-7--||------------------|-5-5\4-4/5-5--|
Both Guitars|-----------------------------------------------------||-----------------------------------------------------||-4-4-4-4-4-4-4---------------7-7-7-7-7-7-7-7---------||-4-4-4-4-4-4-4-5-5-5-5-5-5-5-7-7-7-7-7-7-7-7-7-7-7-7-||-2-2-1-1-2-2-2-5-5-5-5-5-5-5-5-5-5-5-4-4-4-4-7-7-7-7-||---------------3-3-2-2-3-3-3-----------------5-5-5-5-|
Guitar 1 /Both Guitars\ |------------------|--------------||------------------|--------------||--9-9-9-11-11-7-7-|--------------||--9-9-9-11-11-7-7-|-5-5-5-5-5-5--||--7-7-7-9--9--5-5-|-5-5-5-5-5-5--||------------------|-3-3\2-2/3-3--|
Guitar 1 /Both Guitars\|------------------|--------------||------------------|--------------||--9-9-9-11-11-7-7-|--------------||--9-9-9-11-11-7-7-|-7-7-7-7-7-7--||--7-7-7-9--9--5-5-|-7-7-7-7-7-7--||------------------|-5-5\4-4/5-5--|
Both Guitars|-----------------------------------------------------||-----------------------------------------------------||-4-4-4-4-4-4-4---------------7-7-7-7-7-7-7-7---------||-4-4-4-4-4-4-4-5-5-5-5-5-5-5-7-7-7-7-7-7-7-7-7-7-7-7-||-2-2-1-1-2-2-2-5-5-5-5-5-5-5-5-5-5-5-4-4-4-4-7-7-7-7-||---------------3-3-2-2-3-3-3-----------------5-5-5-5-|
Guitar 1 ends on guitar 2 ends on|---| |----||---| |----||-7-| |-7--||-7-| |-7--||-5-| |-7--||---| |-0~-|
Let 0 on guitar 2 ring for the bass part of the pre-verse Pre-Verse Guitar 2 Bass plays the first two measures of the pre-verse Drums come in on the 4th Measure of the pre verse
|----------------||----------------||----------------||----------------||----------------||----------------|
|----------------||----------------||----------------||----------------||----------------||----------------|
|----------------------||-777-88-77-88-8-6-6-6-||-777-77-77-77-7-6-6-6-||-999-99-99-99-9-9-9-9-||----------------------||----------------------|
|----------------------||-777-88-77-88-8-6-6-6-||-777-77-77-77-7-6-6-6-||-999-99-99-99-9-9-9-9-||----------------------||----------------------|
|----------------------||-777-88-77-88-8-6-6-6-||-777-77-77-77-7-6-6-6-||-999-99-99-99-9-9-9-9-||----------------------||----------------------|
|----------------------||-777-88-77-88-8-6-6-6-||-777-77-77-77-7-6-6-6-||-999-99-99-99-9-9-9-9-||----------------------||----------------------|
|----------------------||-777-88-77-88-8-6-6~--||-777-77-77-77-7-6-6~--||-999-99-99-99-9-9-9~--||----------------------||----------------------|
Verse Guitar 2
|----------------------||-777-88-77-88-8-6-6-6-||-777-77-77-77-7-6-6-6-||-999-99-99-99-9-9-9-9-||----------------------||----------------------|
|----------------------||-777-88-77-88-8-6-6-6-||-777-77-77-77-7-6-6-6-||-999-99-99-99-9-9-9-9-||----------------------||----------------------|
|----------------------||-777-88-77-88-8-6-6-6-||-777-77-77-77-7-6-6-6-||-999-99-99-99-9-9-9-9-||----------------------||----------------------|
|----------------------||-777-88-77-88-8-6-6-6-||-777-77-77-77-7-6-6-6-||-999-99-99-99-9-9-9-9-||----------------------||----------------------|
|----------------------||-777-88-77-88-8-6-6-6-||-777-77-77-77-7-6-6-6-||-999-99-99-99-9-9-9-9-||----------------------||----------------------|
|----------------------||-777-88-77-88-8-6-6-6-||-777-77-77-77-7-6-6-6-||-999-99-99-99-9-9-9-9-||----------------------||----------------------|
|----------------------||-777-88-77-88-8-6-6-6-||-777-77-77-77-7-6-6-6-||-999-99-99-99-9-9-9-9-||----------------------||----------------------|
|----------------------||-777-88-77-88-8-6-6-6-||-777-77-77-77-7-6-6-6-||-999-99-99-99-9-9-9-9-||----------------------||----------------------|
Chorus Guitar 2 **Strum the 8, 12, & 10ís in the chorus
|---------------------------------------||---------------------------------------||---------------------------------------||-8-8--8--8-8--8--8-8---3-3-3-3-3-3-3-3-||-8-12-10-8-12-10-8-12--3-3-3-3-3-3-3-3-||-8-8--8--8-8--8--8-8---3-3-3-3-3-3-3-3-|
|----------------------------------------||----------------------------------------||----------------------------------------||-8-8--8--8-8--8--8-8---3-3-3-3-3--7-7-7-||-8-12-10-8-12-10-8-12--3-3-3-3-3--7-7-7-||-8-8--8--8-8--8--8-8---3-3-3-3-3--7-7-7-|
**Up strokes on the 7ís
|--------------------------------------------||--------------------------------------------||--------------------------------------------||-8-8--8--8-8--8--8-8---8-8--8--8-8--8--8-8--||-8-12-10-8-12-10-8-12--8-12-10-8-12-10-8-12-||-8-8--8--8-8--8--8-8---8-8--8--8-8--8--8-8--|
|-----------------------------------------------||-----------------------------------------------||-----------------------------------------------||-8-8-8-8-8-8-8-8--1-1-1-1-1-1-0~--1-1-1-1-1-0~-||-8-8-8-8-8-8-8-8--1-1-1-1-1-1-0~--1-1-1-1-1-0~-||-8-8-8-8-8-8-8-8--1-1-1-1-1-1-0~--1-1-1-1-1-0~-|
Verse
|----------------------||-777-88-77-88-8-6-6-6-||-777-77-77-77-7-6-6-6-||-999-99-99-99-9-9-9-9-||----------------------||----------------------|
|----------------------||-777-88-77-88-8-6-6-6-||-777-77-77-77-7-6-6-6-||-999-99-99-99-9-9-9-9-||----------------------||----------------------|
|----------------------||-777-88-77-88-8-6-6-6-||-777-77-77-77-7-6-6-6-||-999-99-99-99-9-9-9-9-||----------------------||----------------------|
|----------------------||-777-88-77-88-8-6-6-6-||-777-77-77-77-7-6-6-6-||-999-99-99-99-9-9-9-9-||----------------------||----------------------|
|----------------------||-777-88-77-88-8-6-6-6-||-777-77-77-77-7-6-6-6-||-999-99-99-99-9-9-9-9-||----------------------||----------------------|
|----------------------||-777-88-77-88-8-6-6-6-||-777-77-77-77-7-6-6-6-||-999-99-99-99-9-9-9-9-||----------------------||----------------------|
|----------------------||-777-88-77-88-8-6-6-6-||-777-77-77-77-7-6-6-6-||-999-99-99-99-9-9-9-9-||----------------------||----------------------|
|----------------------||-777-88-77-88-8-6-6-6-||-777-77-77-77-7-6-6-6-||-999-99-99-99-9-9-9-9-||----------------------||----------------------|
Chorus Guitar 2 **Strum the 8, 12, & 10ís in the chorus
|---------------------------------------||---------------------------------------||---------------------------------------||-8-8--8--8-8--8--8-8---3-3-3-3-3-3-3-3-||-8-12-10-8-12-10-8-12--3-3-3-3-3-3-3-3-||-8-8--8--8-8--8--8-8---3-3-3-3-3-3-3-3-|
|----------------------------------------||----------------------------------------||----------------------------------------||-8-8--8--8-8--8--8-8---3-3-3-3-3--7-7-7-||-8-12-10-8-12-10-8-12--3-3-3-3-3--7-7-7-||-8-8--8--8-8--8--8-8---3-3-3-3-3--7-7-7-|
**Up strokes on the 7ís
|--------------------------------------------||--------------------------------------------||--------------------------------------------||-8-8--8--8-8--8--8-8---8-8--8--8-8--8--8-8--||-8-12-10-8-12-10-8-12--8-12-10-8-12-10-8-12-||-8-8--8--8-8--8--8-8---8-8--8--8-8--8--8-8--|
|-----------------------------------------------||-----------------------------------------------||-----------------------------------------------||-8-8-8-8-8-8-8-8--1-1-1-1-1-1-0~--1-1-1-1-1-0~-||-8-8-8-8-8-8-8-8--1-1-1-1-1-1-0~--1-1-1-1-1-0~-||-8-8-8-8-8-8-8-8--1-1-1-1-1-1-0~--1-1-1-1-1-0~-|
|--------------------------||--------------------------||--------------------------||-1-1-1-1-1-1-0~--1-1-1-1--||-1-1-1-1-1-1-0~--1-1-1-1--||-1-1-1-1-1-1-0~--1-1-1-1--|
End
Well thatís itOh and while the guitar two plays this...|----------------------||-777-88-77-88-8-6-6-6-||-777-77-77-77-7-6-6-6-||-999-99-99-99-9-9-9-9-||----------------------||----------------------|
Guitar one strums...|---||---||-9-||-9-||-7-||---|
Tap to rate this tab
 
# A B C D E F G H I J K L M N O P Q R S T U V W X Y Z