Norma Jean - Menphis Will Be Laid To Waste tab

I noticed the tab done by "DETH" was still really good but a tiny bit off so
decided to tab for accuracy..


Guitar 1
Guitar 2 is lead.


Intro
Both guitars


|-------------------------||-------------------------||-------------------------||-6~-6~-6~-6~-6~-6~-6~-6~-||-6~-6~-6~-6~-6~-6~-6~-6~-||-6~-6~-6~-6~-6~-6~-6~-6~-|
guitar 1
|-----------------------||-------4-444444444444--||-------7-----77777777--||--000------------------| X4 |--000------------------||--000------------------|pm ... . ........
Then both guitars 1&2
|-----------------------||-------4-444444444444--||-------7-----77777777--||--000------------------| X8 |--000------------------||--000------------------|pm ... . .....
Guitar 2
|------------------------------||------------------------------||------------------------------||------------------------------| X8|--0--0--0--0--0~--0--0~--0~-0~| |44-44-44-44-44--33-33--00-00--|
guitar 1 (start after guitar 2 has played above riff through once =D) Heavy reverb
|------------------------------||------------------------------||--2--2--2--2--2~--2--2~---2--2||44-44-44-44-44--33-33--0-0-00-| X7|------------------------------||------------------------------|
guitar 2
|-----------------------------||-7-7-7-7-7~-7-7-7-7-7~-7~----||-4-4-4-4-4~-4-4-4-4-4~----4~-||-4-4-4-4-4~-4-4-4-4-4~-------||-----------------------------||-----------------------------|
guitar 1
|-----------------------------||-7-7-7-7-7~-7-7-7-7-7~-------||-4-4-4-4-4~-4-4-4-4-4~-------||-4-4-4-4-4~-4-4-4-4-4~-------||---------0~---------0~-------||---------0~---------0~-------|
Both guitars
|------------------------------------------------------------||------------------------------------------------------------||--00000------00000-0-0-0--0-0-0-00000------00000-----0-0-0-| X2|--00000------00000-0-0-0--0-0-0-00000------00000-----0-0-0-||--00000------00000-0-0-0--0-0-0--00000------00000-----0-0-0-|pm ..... ..... . . . . . . ..... ..... . . .
Both guitars
|-------------||-------------||-------------||-8~-------4~-||-8~-------4~-||-8~-------4~-|
With both guitars but faster now
|-----------------------||-------4-444444444444--||-------7-----77777777--||--000------------------| X8 |--000------------------||--000------------------|pm ... . .....
both guitars
|---------------------------||---------------------------||---------------------------||--0000000~----0-0~----0-0~-| X4|--0000000~----0-0~----0-0~-||--0000000~----0-0~----0-0~-|pm ....... . . . .
guitar 1 X12 guitar 2 X8
|---------------------------||---------------------------||---------------------------||--0000000-----0-0-----0-0--| |--0000000-----0-0-----0-0--||--0000000-----0-0-----0-0--|pm ....... . . . .
guitar 2
|-----------------------------------------------------------------------||-----------------------------------------------------------------------||--10------------11111111---10--------------11111111---10---------------||--x--(times 14)-x-x-x-x-----x--(times 30)--x-x-x-x----x--(times 14)----||--8-------------9-9-9-9-----8--------------8-8-8-8----8----------------||-----------------------------------------------------------------------|
Both guitars
|------||------||------||--11~-| X4|--8~--||--8~--|
guitar 1
|----------------| |----------------| |----------------| |----------------| X8 |----------------| |---5/8--8-8-8---|
guitar 2 (guitar 1 starts 4 times on above riff then guitar 2 comes in for the remaining 4 riffs)
|----------------| |----------------| |----------------| |----------------| X4|-5/8--8-8-8-8---| |-5/8--8-8-8-8---|
goth guitars (guitar 2 switches to below riff 5 times through this one|-----------| |-----------| |-----------| |-8-8--8-8--| X7 |-8-8--8-8--| |-8-8--8-8--|
guitar 2
|-------| |-------| |-------| |-11-11-| |-8--8--||-8--8--|
guitar 2
|-----------------------------------------------------------------------||-----------------------------------------------------------------------||--10------------11111111---10--------------11111111---10---------------||--x--(times 14)-x-x-x-x-----x--(times 30)--x-x-x-x----x--(times 14)----||--8-------------9-9-9-9-----8--------------8-8-8-8----8----------------||-----------------------------------------------------------------------|
guitar 1|-------------| |-------------| |-------------| |-8--8-8-8----| X7 |-8--8-8-8----| |-8--8-8-8-5b-|
both guitars
|--------------| |--------------| |--------------| |-11-11-11-11~-| X7 |-8--8--8--8~--| |-8--8--8--8~--|
|-------| |-------| |-------| |--6~~--| |--4~~--| |--4~~--|
enjoy Key: . = Palm Mute ~ = Let note ring / = slide up
Tap to rate this tab
 
# A B C D E F G H I J K L M N O P Q R S T U V W X Y Z