Norma Jean - Bayonetwork Vultures In Vivid Color tab

-------------------------------------------------------------------------------
	bayonetwork: vultures in vivid color by Norma Jean
-------------------------------------------------------------------------------
i believe the tuning is drop D flat but i like to play it in drop B 
for maximum heaviness. ALL HAIL NORMA JEAN!!!!!!!

INTRO|-------------------------------------------------------------------------||---666666---66----66-----------------------------------------------------||---999999---99----99-----------------------------------------------------||-------------------------------------------------------------------------||-------------------------------------------------------------------------||-0--------0----0---------------------------------------------------------|x6
e|---------------------------------------------------------------------------|B|---5------------6----6-----------------------------------------------------|G|---8------------9----9-----------------------------------------------------|D|---------------------------------------------------------------------------|A|---------------------------------------------------------------------------|E|-0---0-1-1-1-1----0----0---------------------------------------------------|X2
e|-----------------------------------|--------------------------------------|B|-----------------------------------|--------------------------------------|G|-----------------------------------|--------------------------------------|D|-----------------------------------|--------------------------------------|A|-----------------------------------|-1\9\1\9---1\9\1\9---1\9\1\9---1\9\1\9|E|2-2-2-3-0-2-2-3-0-2-2-2-3-0-2-2-3-0|-1\9\1\9-0-1\9\1\9-0-1\9\1\9-0-1\9\1\9| X1 1/2 THEN: DO THIS 6 TIMES TWICE.
e|---------------------------------------------------------------------------|B|---------------------------------------------------------------------------|G|-7-7-7-6-6-6-6-------------------------------------------------------------|D|-0-0-0-0-0-0-0-------------------------------------------------------------|A|---------------------------------------------------------------------------|E|---------------------------------------------------------------------------|
CHORUSe|------------------xx-xx--------------------------------------|B|------------------xx-xx--------------------------------------|G|------------------xx-xx--------------------------------------|D|------------------xx-xx--------------------------------------|A|--2-2-5-0-5-0-5-7-xx-xx--------------------------------------|E|0-2-2-5-0-5-0-5-7-xx-xx--------------------------------------|X3
e|---------------------------------------------------------------------------|B|---------------------------------------------------------------------------|G|---------------------------------------------------------------------------|D|-5-5-5-5-5-5-5-5-10-10-10-10-----------------------------------------------|A|-5-5-5-5-5-5-5-5-10-10-10-10-0---------------------------------------------|E|-5-5-5-5-5-5-5-5-10-10-10-10-0---------------------------------------------|
|-----------------------------------------||-----------------------------------------||-----------------------------------------||-5-5-5-5--3-3-3--0--0--2--------(2)------||-5-5-5-5--3-3-3--0--0--2--------(2)------||-5-5-5-5--3-3-3--0--0--2--------(2)------|
|-------------------------||-------------------------||-------------------------||--2--2--2--2--2--2--2--2-||--2--2--2--2--2--2--2--2-||--2--2--2--2--2--2--2--2-|
|-------------------------------------------------------||---6-6-6-6-6-6-----6-----6-----6-6-6-6-6-6-----6-----6-||---9-9-9-9-9-9-----9-----9-----9-9-9-9-9-9-----9-----9-||-------------------------------------------------------||-------------------------------------------------------||-0--------------0----0-----0-----------------0-----0---|
|---------------------||---5---------6---6---||---8---------9---9---||---------------------||---------------------||-0---1-1-1-1---0---0-|x2
|---------------------------------------||---------------------------------------||---------------------------------------||-2-3---2-3---2-3-6---2-3---2-3---2-1-3-||-2-3-0-2-3-0-2-3-6-0-2-3-0-2-3-0-2-1-3-||-2-3-0-2-3-0-2-3-6-0-2-3-0-2-3-0-2-1-3-|
|----------------------------------------------------||----------------------------------------------------||----------------------------------------------------||---2-3---2-3----------------------------------------||-0-2-3-0-2-3-0--1/-1/--0--1/-1/--0--1/-1/--0--1/-1/-||-0-2-3-0-2-3-0--1/-1/--0--1/-1/--0--1/-1/--0--1/-1/-| X2
|----------------------------------------------||----------------------------------------------||----------------------------------------------||-2---(2)----3---(3)----5---(5)----10---(10)---||-2---(2)----3---(3)----5---(5)----10---(10)---||-2---(2)----3---(3)----5---(5)----10---(10)---|
| |
|----------------------------------------------||----------------------------------------------||-4----------5-4--------7-12-------12-11-------||-x----------x-x--------x-x--------x--x--------||-2----------3-3--------5-10-------10-10-------||----------------------------------------------|
|--------------------------------------------------||--------------------------------------------------||--------------------------------------------------||-2---(2)----3---(3)----5---(5)----10---(10)-------||-2---(2)----3---(3)----5---(5)----10---(10)-------||-2---(2)----3---(3)----5---(5)----10---(10)----0--|
| |
|-------------------------------------------------||-------------------------------------12----------||-4----------5-4--------7-12-------12-12----------||-x----------x-x--------x-x--------x--x-----------||-2----------3-3--------5-10-------10-10----------||----------------------------------------------0--|
CHORUS
|----------------------------||---------------------10-10--||---------------------13-13--||----------------------------||----------------------------||-2--2-3p0-5h7-5h7-0---------|X3
|-----------------------------------||-----------------------------------||-----------------------------------||-5-5-5-5--3-3-3--0--0--2-----------||-5-5-5-5--3-3-3--0--0--2-----------||-5-5-5-5--3-3-3--0--0--2-----------|
| |
|-----------------------------------||-----------------------7-----------||-----------------------10----------||-5-5-5-5--3-3-3--0--0--------------||-5-5-5-5--3-3-3--0--0--------------||-5-5-5-5--3-3-3--0--0--------------|
|----------------------------||---------------------10-10--||---------------------13-13--||----------------------------||----------------------------||-2--2-3p0-5h7-5h7-0---------|X4
|-----------------------------||-----------------------------||-----------------------------||-2---------------------------||-2-0-0-0-0-0-0-000-0-0-0-0-0-||-2-0-0-0-0-0-0-000-0-0-0-0-0-|X3
|-----------------------------||-----------------------------||-----------------------------||-2---------------------------||-2-0-0-0-0-0-0-000-2p0-------||-2-0-0-0-0-0-0-000-----3p2p0-|
|----------------------------------------------------||----------------------------------------------------||----------------------------------------------------||-2-----------------------2--------------------------||-2-0-0-0-0--0--0-0--0-0--2--0-0-0-0--0--0-2p0-------||-2-0-0-0-0--0--0-0--0-0--2--0-0-0-0--0--0-----3p2p0-|x2
|------------------------------------------------------|---||------------------------------------------------------|---||------------------------------------------------------|---||------------------------------------------------------|---||--------------------------------------------2p0-------|---||-2--1-1--1-1--1--1-1--1-1--2--1-1--1-1--0-0-----3p2p0-|-2-|
|---------------||---------------||---------------||---------------||---2p0---------||-0-----3p2p0-2-|x6
|-------------------------------||-------------------------------||-------------------------------||-------------2-3-3-3-3-3-3-3-3-||---2p0-------2-3-3-3-3-3-3-3-3-||-0-----3p2p0-2-3-3-3-3-3-3-3-3-|
|------------------------------------------------||---6-6-6-6-6-6-----6-----6--6-------------6---6-||---9-9-9-9-9-9-----9-----9--9-------------9---9-||------------------------------------------------||------------------------------0-0-0-0-0-0---0---||-0--------------0---0---------0-0-0-0-0-0---0---|
|--------------------------------------------------||-------11-13-12-11---8----7----6-8--7--6---4---3--||-------14-16-15-14---11---10---9-11-10-9---7---6--||--------------------------------------------------||-0--0---------------------------------------------||-0--0--------------0----0----0-----------0---0----|
thats it, i hope you enjoy. feel free to email at supercenter10@hotmail.com. i am always open to criticizm.
Tap to rate this tab
 
# A B C D E F G H I J K L M N O P Q R S T U V W X Y Z