Norma Jean - Murphy Was An Optimist tab version 2

easy, fun song to play from the Anti Mother album

0:00|--------------------------------------------------||--------------------------------------------------| |--------------------------------------------------| |---7--7--7--7--7--7--7--7--7--7--7--7--7--7--6-6--| |---9--9--9--9--9--9--9--9--9--9--9--9--9--9--7-7--| |--------------------------------------------------|
|-------------------------------------------------------------------| |-------------------------------------------------------------------| |-------------------------------------------------------------------| |---7--7--7--7--7--7--7--7--7---9---9---9---9---9---9---9---9---6-6-| |---9--9--9--9--9--9--9--9--9---9---9---9---9---9---9---9---9---7-7-| |-------------------------------------------------------------------|
0:27 |----------------------------------| |----------------------------------| |----------------------------------| |----------------------------------| |--2/5-5---------------------------| |--------5-4-4-4-4-4-4-4-4-4-4-4-4-|
|----------------------------------------------| |----------------------------------------------| |----------------------------------------------| |----------------------------------------------| |--2/5-5---------------------------------------| |--------5-4-4-4-4-4-4-4-2~--4-4-4-4-4-4-4-4-4-|
|----------|---------------------------| |----------|---------------------------| |----------|---------------------------| |----------|---------------------------| |--2/5-5-4-|-2-2-2-2-2-2-2-2-2-0-0-0-0-| |--------4-|-2-2-2-2-2-2-2-2-2-0-0-0-0-|
|----------------------------------| |----------------------------------| |----------------------------------| |----------------------------------| |--2/5-5---------------------------| |--------5-4-4-4-4-4-4-4-4-4-4-4-4-|
|----------------------------------------------| |----------------------------------------------| |----------------------------------------------| |----------------------------------------------| |--2/5-5---------------------------------------| |--------5-4-4-4-4-4-4-4-2~--4-4-4-4-4-4-4-4-4-|
|------------------------------------| |------------------------------------| |------------------------------------| |------------------------------------| |--2/5-5-4-2-2-2-2-2--2-2-0-0-0--0-0-| |--------4-2-2-2-2-2--2-2-0-0-0--0-0-|
|-----------------------------------------||-----------------------------------------||-11--11-11-11-11-11--18--18-18-18-18-18--| |-x---x--x--x--x--x----x---x--x--x--x--x--||-9---9--9--9--9--9---16--16-16-16-16-16--||-----------------------------------------|
0:51|-------------------------------------------------------| |-------------------------------------------------------| |-14--14-14-14-14--14--18--18-18-18-18-18---9--9--9--9--| |--x---x--x--x--x--x----x---x--x--x--x--x---x--x--x--x--| |-12--12-12-12-12-12---16--16-16-16-16-16---7--7--7--7--| |-------------------------------------------------------|
|-------------------------------------------------------| |-------------------------------------------------------| |-14--14-14-14-14-14---18--18-18-18-18-18---9--9--9--9--| |--x---x--x--x--x--x----x---x--x--x--x--x---x--x--x--x--| |-12--12-12-12-12-12---16--16-16-16-16-16---7--7--7--7--| |-------------------------------------------------------|
played over lead (0:58)|-----------------------------------------------------------| |-----------------------------------------------------------| |-----------------------------------------------------------| |-----------------------------------------------------------| |-0-0-0-0-0--0-0-0-0-0--0-0-0-0-2-2-2-2-2--2-2-2-2-2--2-2-2-| |-0-0-0-0-0--0-0-0-0-0--0-0-0-0-2-2-2-2-2--2-2-2-2-2--2-2-2-|
|-------------------------------------------------------| |-------------------------------------------------------| |-14--14-14-14-14-14---18--18-18-18-18-18---9--9--9--9--| |--x---x--x--x--x--x----x---x--x--x--x--x---x--x--x--x--| |-12--12-12-12-12-12---16--16-16-16-16-16---7--7--7--7--| |-------------------------------------------------------|
|-------------------------------------------------------| |-------------------------------------------------------| |-14--14-14-14-14-14---18--18-18-18-18-18---9--9--9--9--| |--x---x--x--x--x--x----x---x--x--x--x--x---x--x--x--x--| |-12--12-12-12-12-12---16--16-16-16-16-16---7--7--7--7--| |-------------------------------------------------------|
|-----------------------------------------------------------| |-----------------------------------------------------------| |-----------------------------------------------------------| |-----------------------------------------------------------| |-0-0-0-0-0--0-0-0-0-0--0-0-0-0-2-2-2-2-2--2-2-2-2-2--2-2-2-| |-0-0-0-0-0--0-0-0-0-0--0-0-0-0-2-2-2-2-2--2-2-2-2-2--2-2-2-|
1:16|-------------0--------------------------------------------||-----2-------0-------------------2------------------------||-----2---------------------------2------------------------||----------------------------------------------------------||-2h4---0-2-4----------------0-2h4--0-2-4------------------||-2h4---0-2-4----0-2-2-2-2---0-2h4--0-2-4--0-0-0-0-0-0-0-0-| . . . .
|---------------------------------------||----2-------1------------------2-------||----2-------1------------------2-------| |---------------------------------------||-2h4--0-2-4--------------0-2h4---0-2-4-||-2h4--0-2-4---0-2-2-2-2--0-2h4---0-2-4-| . . . .
|-------------------------------| |-------------------------------||-------------------------------| |-0-0-0-0-0-0-0-0--2-2-2-2-2-2--||-0-0-0-0-0-0-0-0--2-2-2-2-2-2--| |-0-0-0-0-0-0-0-0--2-2-2-2-2-2--|
1:32|----------------------------------| |----------------------------------| |----------------------------------| |----------------------------------| |--2/5-5---------------------------| |--------5-4-4-4-4-4-4-4-4-4-4-4-4-|
|----------------------------------------------| |----------------------------------------------| |----------------------------------------------| |----------------------------------------------| |--2/5-5---------------------------------------| |--------5-4-4-4-4-4-4-4-2~--4-4-4-4-4-4-4-4-4-|
|----------|-----------------------------| |----------|-----------------------------| |----------|-----------------------------| |----------|-----------------------------| |--2/5-5-4-|-2-2-2-2-2--2-2-0-0-0---0--0-| |--------4-|-2-2-2-2-2--2-2-0-0-0---0--0-|
1:42|-------------------------------------------------------| |-------------------------------------------------------| |-14--14-14-14-14-14---18--18-18-18-18-18---9--9--9--9--| |--x---x--x--x--x--x----x---x--x--x--x--x---x--x--x--x--| |-12--12-12-12-12-12---16--16-16-16-16-16---7--7--7--7--| |-------------------------------------------------------|
|-------------------------------------------------------| |-------------------------------------------------------| |-14--14-14-14-14-14---18--18-18-18-18-18---9--9--9--9--| |--x---x--x--x--x--x----x---x--x--x--x--x---x--x--x--x--| |-12--12-12-12-12-12---16--16-16-16-16-16---7--7--7--7--| |-------------------------------------------------------|
|-----------------------------------------------------------| |-----------------------------------------------------------| |-----------------------------------------------------------| |-----------------------------------------------------------| |-0-0-0-0-0--0-0-0-0-0--0-0-0-0-2-2-2-2-2--2-2-2-2-2--2-2-2-| |-0-0-0-0-0--0-0-0-0-0--0-0-0-0-2-2-2-2-2--2-2-2-2-2--2-2-2-|
|-------------------------------------------------------| |-------------------------------------------------------| |-14--14-14-14-14-14---18--18-18-18-18-18---9--9--9--9--| |--x---x--x--x--x--x----x---x--x--x--x--x---x--x--x--x--| |-12--12-12-12-12-12---16--16-16-16-16-16---7--7--7--7--| |-------------------------------------------------------|
|-------------------------------------------------------| |-------------------------------------------------------| |-14--14-14-14-14-14---18--18-18-18-18-18---9--9--9--9--| |--x---x--x--x--x--x----x---x--x--x--x--x---x--x--x--x--| |-12--12-12-12-12-12---16--16-16-16-16-16---7--7--7--7--| |-------------------------------------------------------|
|-----------------------------------------------------------| |-----------------------------------------------------------| |-----------------------------------------------------------| |-----------------------------------------------------------| |-0-0-0-0-0--0-0-0-0-0--0-0-0-0-2-2-2-2-2--2-2-2-2-2--2-2-2-| |-0-0-0-0-0--0-0-0-0-0--0-0-0-0-2-2-2-2-2--2-2-2-2-2--2-2-2-|
2:08|-------------0--------------------------------------------||-----2-------0-------------------2------------------------||-----2---------------------------2------------------------||----------------------------------------------------------||-2h4---0-2-4----------------0-2h4--0-2-4------------------||-2h4---0-2-4----0-2-2-2-2---0-2h4--0-2-4--0-0-0-0-0-0-0-0-| . . . .
|---------------------------------------||----2-------1------------------2-------||----2-------1------------------2-------| |---------------------------------------||-2h4--0-2-4--------------0-2h4---0-2-4-||-2h4--0-2-4---0-2-2-2-2--0-2h4---0-2-4-| . . . .
|-------------------------------| |-------------------------------||-------------------------------| |-0-0-0-0-0-0-0-0--2-2-2-2-2-2--||-0-0-0-0-0-0-0-0--2-2-2-2-2-2--| |-0-0-0-0-0-0-0-0--2-2-2-2-2-2--|
|----------| |----------| |----------| |----------| |--2/5-5---| |--------5-|
random stuff going on in the background, just mess around with the above riff and palm muting
2:37|------------------------------------------------------------------||------------------------------------------------------------------||------------------------------------------------------------------||------------------------------------------------------------------||-2/5-5----------------------------2/5-5---------------------------||-------5-4^-4^-4^-4^-4^-4^-4^-4^--------5-4^-4^-4^-4^-4^-4^-4^-4^-|
|-----------------------------------------------------||-----------------------------------------------------||-----------------------------------------------------| I canít quite|-----------------------------------------------------| make out the|-2/5-5-----------------------------------------------| end of this|-------5---2--2--2--2--2-2-2-2---0--0--0--0--0-0-0-0-| riff . . . . . . . . . . . . . . . .
2:51|----------------------------------------------------||----------------------------------------------------||----------------------------------------------------||-0--0--0--0---2--2--2--2---4--4--4--4--4--4--4--4---| 2x|-0--0--0--0---2--2--2--2---4--4--4--4--4--4--4--4---||-0--0--0--0---2--2--2--2---4--4--4--4--4--4--4--4---|
|--------------------------------------------------------------------||--------------------------------------------------------------------||--------------------------------------------------------------------||-0-0-0-0-0-0-0-0--2-2-2-2-2-2-2-2--6-6-6-6-6-6-6-6--7-7-7-7-7-7-7-7-||-0-0-0-0-0-0-0-0--2-2-2-2-2-2-2-2--6-6-6-6-6-6-6-6--7-7-7-7-7-7-7-7-||-0-0-0-0-0-0-0-0--2-2-2-2-2-2-2-2--6-6-6-6-6-6-6-6--7-7-7-7-7-7-7-7-|
|-------------------------------------------------------------||-------------------------------------------------------------||-------------------------------------------------------------||-4-x-x-x-x-4-x-x-x-x-0-2-2-2-2--4-x-x-x-x-4------------------||-4-x-x-x-x-4-x-x-x-x-0-2-2-2-2--4-x-x-x-x-4------------------||-4-x-x-x-x-4-x-x-x-x-0-2-2-2-2--4-x-x-x-x-4--0-0-0-0-0-0-0-0-|
3:18|-------------0--------------------------------------------||-----2-------0-------------------2------------------------||-----2---------------------------2------------------------||----------------------------------------------------------||-2h4---0-2-4----------------0-2h4--0-2-4------------------||-2h4---0-2-4----0-2-2-2-2---0-2h4--0-2-4--0-0-0-0-0-0-0-0-| . . . .
|---------------------------------------||----2-------1------------------2-------||----2-------1------------------2-------| |---------------------------------------||-2h4--0-2-4--------------0-2h4---0-2-4-||-2h4--0-2-4---0-2-2-2-2--0-2h4---0-2-4-| . . . .
|-------------------------------| |-------------------------------||-------------------------------| |-0-0-0-0-0-0-0-0--2-2-2-2-2-2--||-0-0-0-0-0-0-0-0--2-2-2-2-2-2--| |-0-0-0-0-0-0-0-0--2-2-2-2-2-2--|
|-----------------| |-----------------| |-----------------| |-------------0~~-| |--2/5-5------0~~-| |--------5----0~~-|
props to doyouseeit for the first half of the song I'm not sure about the high notes on the chorus, but it's close
Tap to rate this tab
 
# A B C D E F G H I J K L M N O P Q R S T U V W X Y Z