Norma Jean - Memphis Will Be Laid To Waste tab

I was too lazy too tune my guitar to C# flat so here it is in easy Drop D

Riff 1


|-----------------||-----------------||-----------------||-5-5-5-5-5-5-5-5-||-5-5-5-5-5-5-5-5-||-5-5-5-5-5-5-5-5-|
Riff 2
|-----------------------||-------3-33333-3333333-||-------6-66666-6666666-||--000------------------||--000------------------||--000------------------|pm ... .....
Riff 3
|-------------------------------------------------------||-------------------------------------------------------||-------------------------------------------------------||-------------------------------------------------------||----0----0----0----0----0------0----0-------0----0---0-||-33---33---33---33---33---3-22---22---2-0-0---00---0---|
Riff 4
|-----------------------------||-6-6-6-6-6~-6-6-6-6-6~-6~----||-3-3-3-3-3~-3-3-3-3-3~----3~-||-3-3-3-3-3~-3-3-3-3-3~-------||---------0~---------0~-------||---------0~---------0~-------|
Riff 5
|------------------------------------------------------------||------------------------------------------------------------||--00000------00000-0-0-0--0-0-0-00000------00000-----0-0-0-||--00000------00000-0-0-0--0-0-0-00000------00000-----0-0-0-||--00000------00000-0-0-0--0-0-0--00000------00000-----0-0-0-|x2pm ..... ..... . . . . . . ..... ..... . . .
Riff 6
|-------||-------||-------||-6~-2~-||-6~-2~-||-6~-2~-|
Riff 7
|-------------------||-----------2-2-2-2-||-----------5-5-5-5-||--0-0-0-0----------||--0-0-0-0----------||--0-0-0-0----------|x4pm . . . .
Riff 8
|-----------------------||-----------------------||-----------------------||--0000000~--0-0~--0-0~-||--0000000~--0-0~--0-0~-||--0000000~--0-0~--0-0~-|x3pm ....... . . . .
holding the notes. And continue to play it Riff 9
|-----------------------||-----------------------||-----------------------||--0000000---0-0---0-0--||--0000000---0-0---0-0--||--0000000---0-0---0-0--|x12pm ....... . . . .
|----------------------------||----------------------------||--8~--9~--8~-----8~--9~--8~-||--x~--x~--x~-----x~--x~--x~-||--7~--7~--6~-----6~--7~--6~-||----------------------------|
Riff 10
|-----||-----||-----||--7~-||--7~-||--7~-|x4
|-------------| |-------------||-------------| |-------------||-------------| |-------------||-------------| |-0h1/77-7777-||-------------| |-0h1-77-7777-||-0h1/77-7777-|x4 |-0h1/77-7777-|x4
Outro
|--------------------||--------------------||--------------------||-9--9--9--9--9--9--||-7-7---7-7-7-7-||-7-7---7-7-7-7-|
Guitar 2
|----------------------------------------------||----------------------------------------------||--9--9-9-9-9---8-9-9-999/10-10-10--10--10--10-||--x--x--x-x-x--x--x--x--x-x-x/-x--x--x-x-x-x-||--7--7--7-7-7--7--7--7--7-7-7/-8--8--8-8-8-8-||----------------------------------------------|
both guitars end on
|----||----||----||-5~-||-3~-||-3~-|
Tap to rate this tab
 
# A B C D E F G H I J K L M N O P Q R S T U V W X Y Z