Norma Jean - Bayonetwork tab

Song: Bayonetwork:Vultures In Vivid Color
Artist: Norma Jean
Album:O God,the Aftermath
Track #:3
Tunning: Drop Db (Db-Ab-Db-Gb-Bb-Eb)

This tab is made for people who dont
want to play in typical Norma Jean 
tunning (Db-Ab-Db-Gb-Bb-B). It might 
be A little harder to do the screechy 
parts, but if your experienced enough
it’ll come easy 

I also put the times for every bar I
put so there is NO confusion


(0:01-0:16)Eb|-------------------------------------------------------|Bb|---6-6-6-6-6-6-----6-----6-----6-6-6-6-6-6-----6-----6-|Gb|---9-9-9-9-9-9-----9-----9-----9-9-9-9-9-9-----9-----9-|Db|-------------------------------------------------------|Ab|-------------------------------------------------------|Db|-0-------------0-0---0-0---0-0-------------0-0---0-0---|x3
(0:17-0:21)|---------------------||---5---------6---6---||---8---------9---9---||---------------------||---------------------||-0---1-1-1-0---0---0-|x2
Guitar I (power chords optional)(0:22-0:27)|--------------------------------------------------------||--------------------------------------------------------||--------------------------------------------------------||--------------------------------------------------------||--------------------------------------------------------||-2-2-3p2p0-2-3p2p0-2-2-3p2p0-2-3p2p0-2-2-3p2p0-2-3p2p0--|
|
|Guitar II|--------------------------------------------------------||--------------------------------------------------------||--------------------------------------------------------||-2---------------(2)--------------------(2)-------------||-2---------------(2)--------------------(2)-------------||-2---------------(2)--------------------(2)-------------|
guitars I,II (all slides are to “nowhere”)(0:27-0:31)|--------------------------------------||--------------------------------------||--------------------------------------||--------------------------------------||-1/-1/--0--1/-1/--0--1/-1/--0--1/-1/--||-1/-1/--0--1/-1/--0--1/-1/--0--1/-1/--|pm . . .
Guitars I,II (power chords optional)(0:31-0:36)|--------------------------------------------------------||--------------------------------------------------------||--------------------------------------------------------||--------------------------------------------------------||--------------------------------------------------------||-2-2-3p2p0-2-3p2p0-2-2-3p2p0-2-3p2p0-2-2-3p2p0-2-3p2p0--|
guitars I,II (all slides are to “nowhere”)(0:36-0:42)|----------------------------------------||----------------------------------------||----------------------------------------||----------------------------------------||-1/-1/--0--1/-1/--0--1/-1/--0--1/-1/--0-||-1/-1/--0--1/-1/--0--1/-1/--0--1/-1/--0-|x2pm . . . .
guitar I(0:42-0:44)|---------------------||---------------------||-7-7-6-6-6-6-6-6-6-6-||-x-x-x-x-x-x-x-x-x-x-||-5-5-5-5-5-5-5-5-5-5-||---------------------|
|
|Guitar II|---------------------||---------------------||---------------------||---------------------||---------------------||-------------------0-|
Guitars I,II (power Chords Optional)(0:45-0:52|-----------------------------||-----------------------------||-------------------x-x--x-x--||-------------------x-x--x-x--||-------------------x-x--x-x--||-2--2-3p0-5h7-5h7--x-x--x-x--|x3
(0:53-0:55)|------------------------|------------------------|------------------------|-5-5-5-55--10--10-10--0-|-5-5-5-55--10--10-10--0-|-5-5-5-55--10--10-10--0-
(power Chords Optional)(0:56-1:03)|-----------------------------||-----------------------------||-------------------x-x--x-x--||-------------------x-x--x-x--||-------------------x-x--x-x--||-2--2-3p0-5h7-5h7--x-x--x-x--|x3
(1:03-1:08)|-----------------------------------------||-----------------------------------------||-----------------------------------------||-5-5-5-5--3-3-3--0--0--2--------(2)------||-5-5-5-5--3-3-3--0--0--2--------(2)------||-5-5-5-5--3-3-3--0--0--2--------(2)------|
(1:09-1:11)|-------------------------||-------------------------||-------------------------||--2--2--2--2--2--2--2--2-||--2--2--2--2--2--2--2--2-||--2--2--2--2--2--2--2--2-|
Guitar I(1:12-1:16)|-------------------------------------------------------||---6-6-6-6-6-6-----6-----6-----6-6-6-6-6-6-----6-----6-||---9-9-9-9-9-9-----9-----9-----9-9-9-9-9-9-----9-----9-||-------------------------------------------------------||-------------------------------------------------------||-0-------------0-0---0-0---0-0-------------0-0---0-0---|
|
|Guitar II|-------------------------------------------------------||-------------------------------------------------------||-------------------------------------------------------||-------------------------------------------------------||-------------------------------------------X\\\--------||-------------------------------------------X\\\\-------|
Guitars I,II(1:17-1:22)|---------------------||---5---------6---6---||---8---------9---9---||---------------------||---------------------||-0---1-1-1-0---0---0-|x2
breif pause
(1:24-1:29)|---------------------------------------||---------------------------------------||---------------------------------------||-2-3---2-3---2-3-6---2-3---2-3---2-1-3-||-2-3-0-2-3-0-2-3-6-0-2-3-0-2-3-0-2-1-3-||-2-3-0-2-3-0-2-3-6-0-2-3-0-2-3-0-2-1-3-|pm . . . . .
(1:29-1:34)|----------------------------------------------------||----------------------------------------------------||----------------------------------------------------||---2-3---2-3----------------------------------------||-0-2-3-0-2-3-0--1/-1/--0--1/-1/--0--1/-1/--0--1/-1/-||-0-2-3-0-2-3-0--1/-1/--0--1/-1/--0--1/-1/--0--1/-1/-|pm. . . . . .
(1:34-1:39)|-----------------------------------------||-----------------------------------------||---4-5---4-5---4-5-8---4-5---4-5---4-3-5-||---2-3---2-3---2-3-6---2-3---2-3---2-1-3-||-0-2-3-0-2-3-0-2-3-6-0-2-3-0-2-3-0-2-1-3-||-0-2-3-0-2-3-0-2-3-6-0-2-3-0-2-3-0-2-1-3-|pm. . . . . .
(1:39-1:44)|----------------------------------------------------||----------------------------------------------------||---4-5---4-5----------------------------------------||---2-3---2-3----------------------------------------||-0-2-3-0-2-3-0--1/-1/--0--1/-1/--0--1/-1/--0--1/-1/-||-0-2-3-0-2-3-0--1/-1/--0--1/-1/--0--1/-1/--0--1/-1/-|pm. . . . . .
Guitar I(1:44-1:54)|----------------------------------------------||----------------------------------------------||----------------------------------------------||-2---(2)----3---(3)----5---(5)----10---(10)---||-2---(2)----3---(3)----5---(5)----10---(10)---||-2---(2)----3---(3)----5---(5)----10---(10)---|
|
|Guitar II|----------------------------------------------||----------------------------------------------||-4----------5-4--------7-12-------12-11-------||-x----------x-x--------x-x--------x--x--------||-2----------3-3--------5-10-------10-10-------||----------------------------------------------|
Guitar I(1:55-2:05)|--------------------------------------------------||--------------------------------------------------||--------------------------------------------------||-2---(2)----3---(3)----5---(5)----10---(10)-------||-2---(2)----3---(3)----5---(5)----10---(10)-------||-2---(2)----3---(3)----5---(5)----10---(10)----0--|
|
|Guitar II|-------------------------------------------------||-------------------------------------12----------||-4----------5-4--------7-12-------12-12----------||-x----------x-x--------x-x--------x--x-----------||-2----------3-3--------5-10-------10-10----------||----------------------------------------------0--|
Guitars I,II (power Chords Optional)(2:05-2:13)|-----------------------------||-----------------------------||-------------------x-x--x-x--||-------------------x-x--x-x--||-------------------x-x--x-x--||-2--2-3p0-5h7-5h7--x-x--x-x--|x3
(2:13-2:15)|----------------------------||----------------------------||----------------------------||-5-5-5-55--10--10-10--10-10-||-5-5-5-55--10--10-10--10-10-||-5-5-5-55--10--10-10--10-10-|
Guitars I,II(2:16-2:23)|----------------------------||--------------------8--8\\--||--------------------11-11\--||----------------------------||----------------------------||-2--2-3p0-5h7-5h7-0---------|x3pm .
Guitars I,II(2:23-2:27)|-----------------------------------||-----------------------------------||-----------------------------------||-5-5-5-5--3-3-3--0--0--2-----------||-5-5-5-5--3-3-3--0--0--2-----------||-5-5-5-5--3-3-3--0--0--2-----------|
|
|Guitars I,II|-----------------------------------||-----------------------7-----------||-----------------------10----------||-5-5-5-5--3-3-3--0--0--------------||-5-5-5-5--3-3-3--0--0--------------||-5-5-5-5--3-3-3--0--0--------------|
Guitars I,II(2:28-2:37)|----------------------------||---------------------8--8\\-||---------------------11-11\-||----------------------------||----------------------------||-2b2.5-3p0-5h7-5h7-0--------|x4pm .
(2:38-2:46)|-----------------------------||-----------------------------||-----------------------------||-2---------------------------||-2-0-0-0-0-0-0-000-0-0-0-0-0-||-2-0-0-0-0-0-0-000-0-0-0-0-0-|x3pm . . . . . . ... . . . . .
(2:46-2:48)|-----------------------------||-----------------------------||-----------------------------||-2---------------------------||-2-0-0-0-0-0-0-000-2p0-------||-2-0-0-0-0-0-0-000-----3p2p0-|pm . . . . . . ...
(2:48-2:58)|----------------------------------------------------||----------------------------------------------------||----------------------------------------------------||-2-----------------------2--------------------------||-2-0-0-0-0--0--0-0--0-0--2--0-0-0-0--0--0-2p0-------||-2-0-0-0-0--0--0-0--0-0--2--0-0-0-0--0--0-----3p2p0-|x2pm . . . . . . . . . . . . . . .
(2:58-3:08) 2nd time only|------------------------------------------------------|---||------------------------------------------------------|---||------------------------------------------------------|---||------------------------------------------------------|---||--------------------------------------------2p0-------|---||-2--1-1--1-1--1--1-1--1-1--2--1-1--1-1--0-0-----3p2p0-|-2-|x2pm .
(3:08-3:16)|---------------||---------------||---------------||---------------||---2p0---------||-0-----3p2p0-2-|x6pm.
(3:16-3:18)|-------------------------------||-------------------------------||-------------------------------||-------------2-3-3-3-3-3-3-3-3-||---2p0-------2-3-3-3-3-3-3-3-3-||-0-----3p2p0-2-3-3-3-3-3-3-3-3-|pm.
(3:18-3:23)|------------------------------------------------||---6-6-6-6-6-6-----6-----6--6-------------6---6-||---9-9-9-9-9-9-----9-----9--9-------------9---9-||------------------------------------------------||------------------------------0-0-0-0-0-0---0---||-0-------------0-0---0-0------0-0-0-0-0-0---0---|
(3:23-3:28)|--------------------------------------------------||-------11-13-12-11---8----7----6-8--7--6---4---3--||-------14-16-15-14---11---10---9-11-10-9---7---6--||--------------------------------------------------||-0--0---------------------------------------------||-0--0--------------0----0----0-----------0---0----|
Tap to rate this tab
 
# A B C D E F G H I J K L M N O P Q R S T U V W X Y Z