Northstar – Broken Parachute tab

Band: Northstar
Title: Broken Parachute

Tuning: Drop D

.=palm muting
b= bend
r= release bend
p= pull off
v= vibrato
/= slide
2x
2x= choke the note
0x

Guitar 1 (left speaker):---------0-----------------------0---4-0-------------------|-----2-----2---2----2----------2---2-----2-------2---2b3r2-|---2---2-----2---4----4p2------------------2---2---2-------|-----------------------------4---------------0-------------|-0---------------------------------------------------------|-----------------------------------------------------------|
---------0-----------------------0---4-0---------------------------|-----2-----2---2----2----------2---2-----2-------2---2b3r2b3r2b3r2-|---2---2-----2---4----4p2------------------2---2---2---------------|-----------------------------4---------------0---------------------|-0-----------------------------------------------------------------|-------------------------------------------------------------------|
------------------------------------------------------------------------------|------------------------------------------------------------------------------|-2222222x----------777777766776677------2222222x----------777777766777777-----|-2222222x-44444444-777777777777777------2222222x-44444444-777777777777777-----|-0000000x-44444444-555555555555555-7v---0000000x-44444444-555555555555555-7v--|----------44444444-000000000000000---------------44444444---------------------|
---------------------------------|---------------------------------|-2~----1111x-7~--2x--1111x-7~----|-2~----1111x-7~--2x--1111x-7~----|-0~----9-9-x-5~--0x--9-9-x-5~----|---------------------------------|
--------------------------------------------|--------------------------------------------| X4-2222222222222222-1111111111111111-77777777-|-2222222222222222-1111111111111111-77777777-|-0000000000000000-9-9-9-9-9-9-9-9--55555555-|--------------------------------------------|
-------------------------|---2~----------2~--------| X2-2-----2~----------------|-------------------------|-------------0-----0~----|-------------------------|
-----------------------------------------------------------------|---------0---------------0---------------0---------------0-------|-----2-----2---2-----2-----2---2-----2-----2---2-----2-----2---2-|-4-4---4-----4---------------------------------------------------|-----------------0-0---0-----0---2-2---2-----2---0-0---0-----0---|-----------------------------------------------------------------|
---------------------------------------------------------xxxx----|---------0---------------0---------------0---------------xxxx----|-----2-----2---2-----2-----2---2-----2-----2---2-----2---xxxx----|-4-4---4-----4-------------------------------------------xxxx----|-----------------0-0---0-----0---2-2---2-----2---0-0---0-xxxx----|---------------------------------------------------------xxxx----|
-------------------------------------------------------------------------------------|-------------------------------------------------------------------------------------| X2-22x-222x-222x-222x-244x-444x-444x-444x-4-111111111111111-77777777-22222222-77777777-|-22x-222x-222x-222x-244x-444x-444x-444x-4-111111111111111-77777777-22222222-77777777-|-00x-000x-000x-000x-022x-222x-222x-222x-2-9-9-9-9-9-9-9-9-55555555-00000000-55555555-|-------------------------------------------------------------------------------------|
-------------------------------------------------------------------------------------|-------------------------------------------------------------------------------------|-2222222x-----------------777777777777777------2222222x----------777777766777777-----|-2222222x-4444-4-4-4-4x---777777777777777------2222222x-44444444-777777777777777-----|-0000000x-4444-4-4-4-4x---555555555555555-7v---0000000x-44444444-555555555555555-7v--|----------4444-4-4-4-4x---------------------------------44444444---------------------|
-----------------------------------------------------------------|-----2-------2-------2-------2-------2-------2-------2-------2---|---2---2---2---2---2---2---2---2---2---2---2---2---2---2---2---2-|---------------------------------4-------4-------0-------0-------|-0-------0-------0-------0---------------------------------------|-----------------------------------------------------------------|
-----------------------------------------------------------------|-----2-------2-------2-------2-------2-------2-------2---2b3r2---|---2---2---2---2---2---2---2---2---2---2---2---2---2---2---------|---------------------------------4-------4-------0---------------|-0-------0-------0-------0---------------------------------------|-----------------------------------------------------------------|
--------------------------------------------|--------------------------------------------| X2-2222222222222222-1111111111111111-77777777-|-2222222222222222-1111111111111111-77777777-|-0000000000000000-9-9-9-9-9-9-9-9--55555555-|--------------------------------------------|
-------------------------|---2~----------2~--------| X2-2-----2~----------------|-------------------------|-------------0-----0~----|-------------------------|
-----------------------------------------------------------------|---------0---------------0---------------0---------------0-------|-----2-----2---2-----2-----2---2-----2-----2---2-----2-----2---2-|-4-4---4-----4---------------------------------------------------|-----------------0-0---0-----0---2-2---2-----2---0-0---0-----0---|-----------------------------------------------------------------|
---------------------------------------------------------xxxx----|---------0---------------0---------------0---------------xxxx----|-----2-----2---2-----2-----2---2-----2-----2---2-----2---xxxx----|-4-4---4-----4-------------------------------------------xxxx----|-----------------0-0---0-----0---2-2---2-----2---0-0---0-xxxx----|---------------------------------------------------------xxxx----|
-------------------------------------------------------------------------------------|-------------------------------------------------------------------------------------|-22x-222x-222x-222x-244x-444x-444x-444x-4-111111111111111-77777777-22222222-77777777-|-22x-222x-222x-222x-244x-444x-444x-444x-4-111111111111111-77777777-22222222-77777777-|-00x-000x-000x-000x-022x-222x-222x-222x-2-9-9-9-9-9-9-9-9-55555555-00000000-55555555-|-------------------------------------------------------------------------------------|
--------------------------------------------------------------------------------xxxx-|--------------------------------------------------------------------------------xxxx-|-22x-222x-222x-222x-244x-444x-444x-444x-4-111111111111111-77777777-22222222-7777xxxx-|-22x-222x-222x-222x-244x-444x-444x-444x-4-111111111111111-77777777-22222222-7777xxxx-|-00x-000x-000x-000x-022x-222x-222x-222x-2-9-9-9-9-9-9-9-9-55555555-00000000-5555xxxx-|--------------------------------------------------------------------------------xxxx-|
--------------------------------------|--------------------------------------|-2-------------2222222-2x-at-the-end--|-2-for-awhile--2222222-2x-------------|-0-------------0000000-0x-------------|--------------------------------------| .......
-------------------------0-------0---0---------0---------|---------------2-----------0-------0-------2-------------|-2~--2~--2~--4---2-2~--4-----2~--------2~----4---2~------|-2~--2~--2~--------2~--------2~--------2~--------2~------|-0~--0~--0~--------0~--------0~--------0~--------0~------|---------------------------------------------------------|
Guitar 2(right speaker): You can play along w/ the intro for guitar one....its j/ a cleaner effect i think they had guitar one put into 2 speakers to make it sound fuller
---------------------------------------------------|---------------------------------------------------| X2-2222222x------------------------------------------|-2222222x-44444444-0000-0-0-0-0000-0000-0-0-0-0000-|-0000000x-44444444-0000-0-0-0-0000-0000-0-0-0-0000-|----------44444444-0000-0-0-0-0000-0000-0-0-0-0000-|
-----------------------------------------------------------|-----------------------------------------------------------| x2-2-22-2-22-2-22-2-22-2-2-2-1111-11-1111-11-11-11-7--6h7p6--|-2-22-2-22-2-22-2-22-2-2-2-1111-11-1111-11-11-11-7---------|-0-00-0-00-0-00-0-00-0-0-0-9-9--9--9-9--9--9--9--5---------|-------------------------------------------------0---------| .. .. .. .. . . . . . .
----------------------------------------------|----------------------------------------------| X2-22x-222x-222x-222x-1111111111111111-77777777-|-22x-222x-222x-222x-1111111111111111-77777777-|-00x-000x-000x-000x-9-9-9-9-9-9-9-9--55555555-|----------------------------------------------|
--------------------------------------------|--------------------------------------------| X2-2222222222222222-1111111111111111-77777777-|-2222222222222222-1111111111111111-77777777-|-0000000000000000-9-9-9-9-9-9-9-9--55555555-|--------------------------------------------|
------------|------------| X2-11~--------|-11~--------|-9-~--0-----|--------9-0-|
-----------------------------------------------------------------|---------0---------------0---------------0---------------0-------|-----2-----2---2-----2-----2---2-----2-----2---2-----2-----2---2-|-4-4---4-----4---------------------------------------------------|-----------------0-0---0-----0---2-2---2-----2---0-0---0-----0---|-----------------------------------------------------------------|
---------------------------------------------------------xxxx----|---------0---------------0---------------0---------------xxxx----|-----2-----2---2-----2-----2---2-----2-----2---2-----2---xxxx----|-4-4---4-----4-------------------------------------------xxxx----|-----------------0-0---0-----0---2-2---2-----2---0-0---0-xxxx----|---------------------------------------------------------xxxx----|
-----------------------------------------------------|--------------------------------------7/9-10b11.5r10-|-9/11-6--9/11-6-6b7r6b7r6b7r6b7r6---9----------------|-----------------------------------------------------|-----------------------------------------------------|-----------------------------------------------------|
-------------------------------------------------------------------------------------|-------------------------------------------------------------------------------------|-22x-222x-222x-222x-244x-444x-444x-444x-4-111111111111111-77777777-22222222-77777777-|-22x-222x-222x-222x-244x-444x-444x-444x-4-111111111111111-77777777-22222222-77777777-|-00x-000x-000x-000x-022x-222x-222x-222x-2-9-9-9-9-9-9-9-9-55555555-00000000-55555555-|-------------------------------------------------------------------------------------|
--------------------------------------------------------|--------------------------------------------------------|-2222222x-----------------------------------------------|-2222222x-4444-4-4-4-4x-0000-0-0-0-0000-0000-0-0-0-0000-|-0000000x-4444-4-4-4-4x-0000-0-0-0-0000-0000-0-0-0-0000-|----------4444-4-4-4-4x-0000-0-0-0-0000-0000-0-0-0-0000-|
---------------------------------------------------|---------------------------------------------------|-2222222x----------6666-2-2-2-6666-6666-6-7-9-9999-|-2222222x-44444444-0000-0-0-0-0000-0000-0-0-0-0000-|-0000000x-44444444-0000-0-0-0-0000-0000-0-0-0-0000-|----------44444444-0000-0-0-0-0000-0000-0-0-0-0000-|
--------------------0-------------|-----0------0-----2---2-----2b3r2-|-------2------2-----------2-------|---2------2-----4-------0---------|-0-------0------------------------|----------------------------------|
----------------------------------------------|----------------------------------------------| X2-22x-222x-222x-222x-1111111111111111-77777777-|-22x-222x-222x-222x-1111111111111111-77777777-|-00x-000x-000x-000x-9-9-9-9-9-9-9-9--55555555-|----------------------------------------------|
------------|------------| X2-11~--------|-11~--------|-9-~--0-----|--------9-0-|
-----------------------------------------------------------------|---------0---------------0---------------0---------------0-------|-----2-----2---2-----2-----2---2-----2-----2---2-----2-----2---2-|-4-4---4-----4---------------------------------------------------|-----------------0-0---0-----0---2-2---2-----2---0-0---0-----0---|-----------------------------------------------------------------|
---------------------------------------------------------xxxx----|---------0---------------0---------------0---------------xxxx----|-----2-----2---2-----2-----2---2-----2-----2---2-----2---xxxx----|-4-4---4-----4-------------------------------------------xxxx----|-----------------0-0---0-----0---2-2---2-----2---0-0---0-xxxx----|---------------------------------------------------------xxxx----|
------------------------------------------------------|--------------------------------------7/9-10b11.5r10v-|-9/11-6--9/11-6-6b7r6b7r6b7r6b7r6---9-----------------|------------------------------------------------------|------------------------------------------------------|------------------------------------------------------|
-------------------------------------------------------------------------------------|-------------------------------------------------------------------------------------|-22x-222x-222x-222x-244x-444x-444x-444x-4-111111111111111-77777777-22222222-77777777-|-22x-222x-222x-222x-244x-444x-444x-444x-4-111111111111111-77777777-22222222-77777777-|-00x-000x-000x-000x-022x-222x-222x-222x-2-9-9-9-9-9-9-9-9-55555555-00000000-55555555-|-------------------------------------------------------------------------------------|
--------------------------------------|--------------------------------------|-2-------------2222222-2x-at-the-end--|-2-for-awhile--2222222-2x-------------|-0-------------0000000-0x-------------|--------------------------------------| .......
------I-------0--------------I------|------I---2------repeat-alot-I------|-2~---I-4---4----------------I2~----|-2~---I----------------------I2~----|-0~---I----------------------I0~----|------I----------------------I------|
Guitar 3:(acoustic track) this track is really light in the bridge at the end but its there wait two measures he starts singing
-------------------------------------|-------------------------------------|-22222222-22222222-22222222-22222222-| repeat till end and end w/ an a power chord-22222222-22222222-22222222-22222222-|-00000000-------------------00000000-|----------44444444-22222222-00000000-|
Please rate this tab:
x1.0