Nothingface – Villains tab

sorry but i only know the second half of the song. the other tabs don't sound right to me.

Verse 2|--------------------------------------|x2|--------------------------------------||--------------------------------------||-3-00-7-0-3-5-3-0-7-3-6-5-0-3-5-3-777-||-3-00-7-0-3-5-3-0-7-3-6-5-0-3-5-3-777-||-3-00-7-0-3-5-3-0-7-3-6-5-0-3-5-3-777-| .. . . .
|--------------------------------------|x2|--------------------------------------||--------------------------------------||-3-00-7-0-3-5-3-0-7-3-6-5-0-3-5-3-777-||-3-00-7-0-3-5-3-0-7-3-6-5-0-3-5-3-777-||-3-00-7-0-3-5-3-0-7-3-6-5-0-3-5-3-777-|........................................
|--------------------------------------|x2|--------------------------------------||--------------------------------------||-3-00-7-0-3-5-3-0-7-3-6-5-0-3-5-3-777-||-3-00-7-0-3-5-3-0-7-3-6-5-0-3-5-3-777-||-3-00-7-0-3-5-3-0-7-3-6-5-0-3-5-3-777-| .. . . .
|--------------------------------------|x2|--------------------------------------||--------------------------------------||-3-00-7-0-3-5-3-0-7-3-6-5-0-3-5-3-777-||-3-00-7-0-3-5-3-0-7-3-6-5-0-3-5-3-777-||-3-00-7-0-3-5-3-0-7-3-6-5-0-3-5-3-777-|........................................
Bridge|-----------------------------------------||-----------------------------------------||-----------------------------------------||-000--000--000--000--000--000--000-------||-000--000--000--000--000--000--000-3-6-5-||-000--000--000--000--000--000--000-------| .. .. .. .. .. .. ..
|------------------------------------------|x6|------------------------------------------||------------------------------------------||-000--000--000-------000--000-------------||-000--000--000-3-6-5-000--000-3-6-5-3-5-4-||-000--000--000-------000--000-------------| .. .. .. .. ..
|---------------------------------||---------------------------------||---------------------------------||-000--000--000--000--000--000--0-||-000--000--000--000--000--000--0-||-000--000--000--000--000--000--0-| .. .. .. .. .. .. .
Verse 2|--------------------------------------|x2|--------------------------------------||--------------------------------------||-3-00-7-0-3-5-3-0-7-3-6-5-0-3-5-3-777-||-3-00-7-0-3-5-3-0-7-3-6-5-0-3-5-3-777-||-3-00-7-0-3-5-3-0-7-3-6-5-0-3-5-3-777-| .. . . .
|--------------------------------------|x2|--------------------------------------||--------------------------------------||-3-00-7-0-3-5-3-0-7-3-6-5-0-3-5-3-777-||-3-00-7-0-3-5-3-0-7-3-6-5-0-3-5-3-777-||-3-00-7-0-3-5-3-0-7-3-6-5-0-3-5-3-777-|........................................
|--------------------------------------|x2|--------------------------------------||--------------------------------------||-3-00-7-0-3-5-3-0-7-3-6-5-0-3-5-3-777-||-3-00-7-0-3-5-3-0-7-3-6-5-0-3-5-3-777-||-3-00-7-0-3-5-3-0-7-3-6-5-0-3-5-3-777-| .. . . .
|---||---||---||-3-||-3-||-3-|
Please rate this tab:
x1.0