November Blessing - This Gray tab

This is the intro and ending tabs, at least i think.
Just an attempt, but good for my first one. xD
Please note, its in Drop-C, NOT STANDARD.



|-------------Let Ring--------------|

|-----------------------------------||----------------0-----0-----0------||----------0-------0-----0-----0----||------2-----2-------2-----2-----2--||----2---2-----2--------------------||--0--------------------------------|
|-------------Let Ring--------------|
|-----------------------------------||----------------0-----0-----0------||----------0-------0-----0-----0----||------2-----2-------2-----2-----2--||----3---3-----3--------------------||--0--------------------------------|
|-------------Let Ring--------------|
|-----------------------------------||-----------------------------------||----------0-----0-----0-----0------||------4-----4-----4-----4-----4----||----5---5-----5-----5-----5-----5--||--0--------------------------------|
|-------------Let Ring--------------|
|-----------------------------------||----------------------0-----0------||----------0-----2-------0-----0----||------2-----2-----2-------2-----2--||----3---3-----3-----3--------------||--0--------------------------------|
|-------------Let Ring--------------|
|-----------------------------------||----------------0-----0-----0------||----------0-------0-----0-----0----||------2-----2-------2-----2-----2--||----2---2-----2--------------------||--0--------------------------------|
|-------------Let Ring--------------|
|-----------------------------------||----------------0-----0-----0------||----------0-------0-----0-----0----||------2-----2-------2-----2-----2--||----3---3-----3--------------------||--0--------------------------------|
|-------------Let Ring--------------|
|-----------------------------------||-----------------------------------||----------0-----0-----0-----0------||------4-----4-----4-----4-----4----||----5---5-----5-----5-----5-----5--||--0--------------------------------|
|-------------Let Ring--------------|
|----------------0------------------||----------------0------------------||----------0-----0------------------||------2-----2---2------------------||----3---3-----3-2------------------||--0-------------0------------------|
Tap to rate this tab
 
# A B C D E F G H I J K L M N O P Q R S T U V W X Y Z