Now Noise - Gedarmerausch tab

E||------------------------|-----------------------|------------------------|B||------------------------|-----------------------|------------------------|G||*-----------------------|-----------------------|------------------------|D||*-----------------------|-----------------------|------------------------|A||-------------------7----|------------------9----|------------------10----|E||---0--x--x--0-----------|--0--x--x--0-----------|--0--x--x--0------------|
4x-----------------------------||--------------------------|-----------------------------||--------------------------|----------------------------*||--------------------------|------------------7--10--9--*||----------------7--10--9--|-----------7--10-------------||--7------7--10------------|--0--x--x--------------------||--------------------------|
--------------------------|---------------------------|--------------------------|---------------------------|--------------------------|---------------------------|----------------7--10--9--|-----------------7--10--9--|--9------7--10------------|--10------7--10------------|--------------------------|---------------------------|
------------------------------||---------------------------|------------------------------||---------------------------|------------------------------||*--------------------------|------7--10--9--7-------------||*--------------------------|--10---------------10--9--10--||---------------------------|------------------------------||---0--0--0--0--0--0--0--0--|
--------------------------|--------------------------|--------------------------|--------------------------|--------------------------|--------------------------|--------------------------|--------------------------|--------------------------|--------------------------|--0--0--0--0--0--0--0--0--|--8--8--8--8--8--8--8--8--|
--------------------------|--------------------------|--------------------------|--------------------------|--------------------------|--------------------------|--------------------------|--------------------------|--------------------------|--------------------------|--8--8--8--8--8--8--8--8--|--3--3--3--3--3--3--3--3--|
--------------------------|--------------------------|--------------------------|--------------------------|--------------------------|--------------------------|--------------------------|--------------------------|--------------------------|--------------------------|--3--3--3--3--3--3--3--3--|--7--7--7--7--7--7--7--7--|
4x---------------------------||---------------------------|---------------------------||---------------------------|--------------------------*||*--------------------------|--------------------------*||*--------------------------|---------------------------||---------------------------|--7--7--7--7--7--7--7--7---||---0--0--0--0--0--0--0--0--|
--------------------------|--------------------------|--------------------------|--------------------------|--------------------------|--------------------------|--------------------------|--------------------------|--------------------------|--------------------------|--0--0--0--0--0--0--0--0--|--8--8--8--8--8--8--8--8--|
2x---------------------------||---------------------------------------|---------------------------||---------------------------------------|--------------------------*||*--------------------------------------|--------------------------*||*--------------------------------------|---------------------------||---------------------------------------|--8--8--8--8--8--8--8--8---||---0--0--0--0--0--0--0--0--0--0--0--0--|
--------------------------------------|--------------------------------------|--------------------------------------|--------------------------------------|--------------------------------------|--------------------------------------|--------------------------------------|--------------------------------------|--------------------------------------|--3--3--3--3--3--3--3--3--3--3--3--3--|--0--0--0--0--0--0--0--0--0--0--0--0--|--------------------------------------|
--------------------------------------|--------------------------------------|--------------------------------------|--------------------------------------|--------------------------------------|--------------------------------------|--------------------------------------|--------------------------------------|--3--3--3--3--3--3--3--3--3--3--3--3--|--------------------------------------|--------------------------------------|--3--3--3--3--3--3--3--3--3--3--3--3--|
--------------------------------------|--------------------------------------|--------------------------------------|--------------------------------------|--------------------------------------|--------------------------------------|--------------------------------------|--------------------------------------|--------------------------------------|--2--2--2--2--2--2--2--2--2--2--2--2--|--3--3--3--3--3--3--3--3--3--3--3--3--|--------------------------------------|
2x---------------------------------------||---------------------------|---------------------------------------||---------------------------|--------------------------------------*||*--------------------------|--------------------------------------*||*--------------------------|--2--2--2--2--2--2--2--2--2--2--2--2---||-----------3--2------------|---------------------------------------||---0----x--------0--2-3-2--|
4x--------------------------||--------------------------|--------------------------||--------------------------|-------------------------*||--------------------------|-------------------5--4--*||--------------------------|----------5--8--7---------||--------------------------|--0----x------------------||--0--0--0--7--0--0--9--0--|
---------------------------|--||---------------------------|--||---------------------------|--||---------------------------|--||---------------------------|--||--10--0--0--9--0--0--7--0--|--||
Tap to rate this tab
 
# A B C D E F G H I J K L M N O P Q R S T U V W X Y Z