Nowayout - En Mil Pedazos tab

No Way Out
En mil pedazos
Lo qué dura dura


Intro:

----------------------------|----------------------------|---11--11--11--11--11--11---|---11--11--11--11--11--11---|---9---9---9---9---9---9----|----------------------------|
--------------------------------------|--------------------------------------|--11--11--11--10----------------------|--11--11--11--11--11--11--11--11------|--9---9---9---9---9---9---9---9-------|------------------11--11--11--11------|
------------------------------|------------------------------|--11-11-11-11-11--------------|--9--9--9--9--9---------------|--9--9--9--9--9---------------|--7--7--7--7--7---------------|
-------------------------------|-------------------------------|10---11--11--11--11--11--11----|11---11--11--11--11--11--11----|9----9---9---9---9---9---9-----|-------------------------------|
--------------------------------------|--------------------------------------|--11--11--11--10----------------------|--11--11--11--11--11--11--11--11------|--9---9---9---9---9---9---9---9-------|------------------11--11--11--11------|
------------------------------|------------------------------|------------------------------|--9--9--9--9--9---------------|--9--9--9--9--9---------------|--7--7--7--7--7---------------|
F# Sé muy bien F# Lo que te cuento D#m Tú aun vas B Yo ya he vuelto F# Si algo me ha enseñado el tiempo D#m B Es que es mejor ser sincero F# Ya no más rompecabezas D#m B Me da igual que no lo entiendas F# D#m B No busques la respuesta que no la sé no la sé B F# C# D#m Que no quiero saber lo que hiciste ayer B F# C# D#m Y no quiero saber lo que pienses después B F# C#/D* D#m B C# Empieza a pensar que tan solo serás el punto que ahora cierra mi cuenta F# D#m B Hablar del universo, bailar ver las estrellas F# D#m B Pídeme cualquier deseo, hoy por ti haré lo que sea F# D#m B Si crees que soy diferente, si crees que soy para siempre F# D#m B Es mejor que no lo intentes que no lo ves no lo ves B F# C# Mentiré y lo haré otra vez hasta tenerte B F# B C# Una vez y otra vez y otra vez hasta perderte B F# C# D#m Que no quiero saber lo que hiciste ayer B F# C# D#m Y no quiero saber lo que pienses después B F# C#/D* D#m B No quiero saber que se siente otra vez, ya no quiero saberlo, C# no quiero saberlo B F# C# D#m Que no quiero saber lo que hiciste ayer B F# C# D#m Y no quiero saber lo que pienses después B F# C#/D* D#m B No quiero saber que se siente otra vez, ya no quiero saberlo, C# no quiero saber nada más D#m C# F# B Ya da igual, si se me rompió en mil pedazos D#m C# B Ya da igual, se perdió D#m C# Ya da igual, ya da igual F# B Lo intenté buscar entre mis brazos D#m C# B Ya no sé lo que es peor Solo:
------------------------------------------|---7------7------7------7--9h11-9---------|-----6--8---6--8---6--8-------------------|------------------------------------------|------------------------------------------|------------------------------------------|
------------------------------------------|---7------7------7--------9h11------------|-----6--8---6--8---6--8-------------------|------------------------------------------|------------------------------------------|------------------------------------------|
----------------------------------------------|--12-11----14--11-----12-11----14--11---------|--------11--------11--------11--------11------|----------------------------------------------|----------------------------------------------|----------------------------------------------|
--------------------------------14------------|--12-11----11-12-11----11-12-14---------------|--------11----------11------------------------|----------------------------------------------|----------------------------------------------|----------------------------------------------|
Fill in Chords: B,F#,C#,D#m x2 B F# C# D#m Que no quiero saber lo que hiciste ayer B F# C# D#m Y no quiero saber lo que pienses después B F# C#/D* D#m B No quiero saber que se siente otra vez, ya no quiero saberlo, C# no quiero saberlo B F# C# D#m No quiero saber lo que hiciste ayer B F# C# D#m Y no quiero saber lo que pienses después B F# C#/D* D#m B No quiero saber que se siente otra vez, ya no quiero saberlo, C# no quiero saberlo B F# C# D#m No quiero saber lo que hiciste ayer B F# C# D#m Y no quiero saber lo que pienses después B F# C#/D* D#m B No quiero saber que se siente otra vez, ya no quiero saberlo, C# no quiero saberlo B C# Ya no quiero ni verlo, no quiero no verlo B C# F# Puedo permitirme otro cuento con el mismo final.
Tap to rate this tab
 
# A B C D E F G H I J K L M N O P Q R S T U V W X Y Z