Nsync - Thinking Of Yoy tab

Thinking of you
 N'sync
 Tabs by: Pham Hong Y
 Email: handsomehy1@yahoo.com
  This is a song giving me much inspiration to tab.
  I think this is a good tab, everybody trys it.
  Have fun!!!!!!!!!!!



E||------------------|-----------------0----|---------0----------------|B||------------------|----------------------|---------------------3----|G||------------------|-----------2--2-----2-|---1--2-----1-----2-------|D||------------------|----------------------|---------------4--------4-|A||------------------|----------------------|--------------------------|E||------------------|----------------------|--------------------------|
---------0----------------|---------0----------------|---------0------------|---------------------3----|---------------------3----|----------------------|---1--2-----1-----2-------|---1--2-----1-----2-------|---1--2---------------|---------------4--------4-|---------------4--------4-|----------------------|--------------------------|--------------------------|----------------------|--------------------------|--------------------------|----------------------|
---------------------------|---------0----------------|---------0--3-----------2--|------0-----0-----------2-|---------------------2-----|---------------------2----|------4-----------4--------|---2--------------2-------|---2-----------------------|---------------0----------|---------------2-----------|--------------------------|
---------------------------|---------0-----5--4--2--0-|---------0--3-----------2--|------0-----0-------------|---------------------2-----|--------------------------|------4-----------4--------|---2----------------------|---2-----------------------|--------------------------|---------------2-----------|--------------------------|
---------------------------|---------0----------------|---------0--3-----------2--|------0-----0-----------2-|---------------------2-----|---------------------2----|------4-----------4--------|---2--------------2-------|---2-----------------------|---------------0----------|---------------2-----------|--------------------------|
---------------------------|---------0-----2--0-------|---------0--3-----------2--|------0-----0--------0----|---------------------2-----|--------------------------|------4-----------4--------|---2--------------------2-|---2-----------------------|--------------------------|---------------2-----------|--------------------------|
--------------------------|--------------------------|--------------------------|--------------------------|---------2-----------2----|------1--2--1-----1--2----|---0--4-----4--0--4-----0-|---2-----------2--------2-|--------------------------|--------------------------|--------------------------|--------------------------|
--------------------------|---------------0----------|--------------------------|------------0-----0-------|---------2-----------2----|------1--2-----------2--1-|---0--4-----4--0--4-----0-|---2----------------------|--------------------------|--------------------------|--------------------------|--------------------------|
---------------------0----|---------------------0----|--------------------------|---------3----------------|---------2-----1--2-----1-|------2--------1--2-----1-|------2-----2-------------|---4--------4-------------|---0----------------------|--------------------------|--------------------------|--------------------------|
--------------------------|------------------------0-|---------3-----------0----|---------------------0----|------2-----------1-------|---------2--------1-------|---4--------4--2--------2-|---0--4-----0--2----------|--------------------------|--------------------------|--------------------------|--------------------------|
---------------------0----|---------------------0----|--------------------------|---------3----------------|---------2-----1--2-----1-|------2--------1--2-----1-|------2-----2-------------|---4--------4-------------|---0----------------------|--------------------------|--------------------------|--------------------------|
--------------------------|--------------------------|--------------------------|--------------------------|---------2-----------2----|---------2-----------2----|---0--4-----0-----2-------|------0-----------2-------|---------------4--------4-|---2--------2--4--------4-|--------------------------|--------------------------|
--------------------------|-------------------------|--------------------------|-------------------------|---------2-----------2----|---------2-----2----1----|---0--4-----0-----2-------|------0------------------|---------------4--------4-|---2--------2------------|--------------------------|-------------------------|
---------------------------|---------0----------------|---------0--3-----------2--|------0-----0-----------2-|---------------------2-----|---------------------2----|------4-----------4--------|---2--------------2-------|---2-----------------------|---------------0----------|---------------2-----------|--------------------------|
---------------------------|---------0-----5--4--2--0-|---------0--3-----------2--|------0-----0-------------|---------------------2-----|--------------------------|------4-----------4--------|---2----------------------|---2-----------------------|--------------------------|---------------2-----------|--------------------------|
---------------------------|---------0----------------|---------0--3-----------2--|------0-----0-----------2-|---------------------2-----|---------------------2----|------4-----------4--------|---2--------------2-------|---2-----------------------|---------------0----------|---------------2-----------|--------------------------|
---------------------------|---------0-----2--0-------|---------0--3-----------2--|------0-----0--------0----|---------------------2-----|--------------------------|------4-----------4--------|---2--------------------2-|---2-----------------------|--------------------------|---------------2-----------|--------------------------|
--------------------------|--------------------------|--------------------------|--------------------------|---------2-----------2----|------1--2--1-----1--2----|---0--4-----4--0--4-----0-|---2-----------2--------2-|--------------------------|--------------------------|--------------------------|--------------------------|
--------------------------|---------------0----------|--------------------------|------------0-----0-------|---------2-----------2----|------1--2-----------2--1-|---0--4-----4--0--4-----0-|---2----------------------|--------------------------|--------------------------|--------------------------|--------------------------|
---------------------0----|---------------------0----|--------------------------|---------3----------------|---------2-----1--2-----1-|------2--------1--2-----1-|------2-----2-------------|---4--------4-------------|---0----------------------|--------------------------|--------------------------|--------------------------|
--------------------------|------------------------0-|---------3-----------0----|---------------------0----|------2-----------1-------|---------2--------1-------|---4--------4--2--------2-|---0--4-----0--2----------|--------------------------|--------------------------|--------------------------|--------------------------|
---------------------0----|---------------------0----|--------------------------|---------3----------------|---------2-----1--2-----1-|------2--------1--2-----1-|------2-----2-------------|---4--------4-------------|---0----------------------|--------------------------|--------------------------|--------------------------|
--------------------------|--------------------------|--------------------------|--------------------------|---------2-----------2----|---------2-----------2----|---0--4-----0-----2-------|------0-----------2-------|---------------4--------4-|---2--------2--4--------4-|--------------------------|--------------------------|
--------------------------|------------------------|------------------|--------------------------|------------------------|------------------|---------2-----------2----|---------2-----2--------|------------------|---0--4-----0-----2-------|------0-----------------|------------------|---------------4--------4-|---2--------2-----------|------------------|--------------------------|------------------------|------------------|
------------------|------------------|------------------|------------------|------------------|------------------|------------------|------------------|------------------|------------------|------------------|------------------|------------------|------------------|------------------|------------------|------------------|------------------|------------------|------------------|------------------|------------------|------------------|------------------|
------------------|------------------|------------------|------------------|------------------|------------------|------------------|------------------|------------------|------------------|------------------|------------------|------------------|------------------|------------------|------------------|------------------|------------------|
---------------------0----|---------------------0----|--------------------------|---------3----------------|---------2-----1--2-----1-|------2--------1--2-----1-|------2-----2-------------|---4--------4-------------|---0----------------------|--------------------------|--------------------------|--------------------------|
--------------------------|------------------------0-|---------3-----------0----|---------------------0----|------2-----------1-------|---------2--------1-------|---4--------4--2--------2-|---0--4-----0--2----------|--------------------------|--------------------------|--------------------------|--------------------------|
---------------------0----|---------------------0----|--------------------------|---------3----------------|---------2-----1--2-----1-|------2--------1--2-----1-|------2-----2-------------|---4--------4-------------|---0----------------------|--------------------------|--------------------------|--------------------------|
--------------------------|--------------------------|--------------------------|--------------------------|---------2-----------2----|---------2-----------2----|---0--4-----0-----2-------|------0-----------2-------|---------------4--------4-|---2--------2--2--------2-|--------------------------|--------------------------|
---------------------2----|---------0-----------2----|---------0--------0-------|------0-----------0-------|---------------3--------3-|---1--------1--3--------3-|------4-----4-------------|--------------------------|---2----------------------|--------------------------|--------------------------|--------------------------|
---------0----------------|------------------------2-|------0--------------2----|---------0-----------2----|---1--------1-----3-------|------1-----------3-------|---------------4--------4-|---2--------2--4----------|--------------------------|--------------------------|--------------------------|--------------------------|
---------------------2----|---------0-----------2----|---------0--------0-------|------0-----------0-------|---------------3--------3-|---1--------1--3--------3-|------4-----4-------------|--------------------------|---2----------------------|--------------------------|--------------------------|--------------------------|
--------------------------|--------------------------|---------0-----------0----|---------0----------------|------1-------------------|---------------------3----|---2--------2--1--4-----1-|------2-----------4-------|--------------------------|---4--------4--4--------4-|--------------------------|--------------------------|
---------------------2----|---------0-----------2----|---------0--------0-------|------0-----------0-------|---------------3--------3-|---1--------1--3--------3-|------4-----4-------------|--------------------------|---2----------------------|--------------------------|--------------------------|--------------------------|
---------0----------------|------------------------2-|------0--------------2----|---------0-----------2----|---1--------1-----3-------|------1-----------3-------|---------------4--------4-|---2--------2--4----------|--------------------------|--------------------------|--------------------------|--------------------------|
---------------------2----|---------0-----------2----|---------0--------0-------|------0-----------0-------|---------------3--------3-|---1--------1--3--------3-|------4-----4-------------|--------------------------|---2----------------------|--------------------------|--------------------------|--------------------------|
--------------------------|--------------------------|---------0-----------0----|---------0-----------0----|------1-------------------|--------------------------|---2--------2--1--4-----1-|------2--------1--4-----1-|--------------------------|---4--------4-------------|--------------------------|--------------------------|
Tap to rate this tab
 
# A B C D E F G H I J K L M N O P Q R S T U V W X Y Z