1-800 Kill Your Wife - I Bashed That Bitch tab

     1-800-kill your wife- I bashed that bitch

tuning: drop D
one amazing song

|----------------------------||----------------------------||----------------------------| x4|----------------------------||----------------------------||-00000-00000-00000000-00000-|
|---------------------------------||---------------------------------||---------------------------------| x3|-----2---2-3---3---3-5-3-5-3-5-3-||-----2---2-3---3---3-5-3-5-3-5-3-||-0-0-2-0-2h3-0-3-0-3h5-3-5p3-5p3-|
|----------------------------||----------------------------||----------------------------| x2|----------------------------||----------------------------||-00000-00000-00000000-00000-|
|------------------------------------------------------------------------||------------------------------------------------------------------------||-------19wb-191817-15-17-15-14h15p14-15-14-12-14~-12--------------------||-17-19-----------------------------------------------14~-14-12----------||---------------------------------------------------------------15-14-12-||------------------------------------------------------------------------|
|----------------------19p15-------------------------------------||-------------------15-------17----------------------------------||-------------11-12-------------16-17-16-------------------------||-----------9----------------------------17-16-------------------||-10-----10------------------------------------19-17-15-19-17-15-||----8-8---------------------------------------------------------|
|-------------------||-------------------||-------------------||-----------------2-||-17-16-14----14--2-||----------17-----2-|
|----------------------------||----------------------------||----------------------------| x4|----------------------------||----------------------------||-00000-00000-00000000-00000-|
|---------------------------------||---------------------------------||---------------------------------| x2|-----2---2-3---3---3-5-3-5-3-5-3-||-----2---2-3---3---3-5-3-5-3-5-3-||-0-0-2-0-2h3-0-3-0-3h5-3-5p3-5p3-|
|----------------------------||----------------------------||----------------------------| x4|----------------------------||----------------------------||-00000-00000-00000000-00000-|
|-----------------------------------------------------||-----------------------------------------------------||-----------------------------------------------------||-----------------------------------------------------||-00-1-00-2-00-3-00-5-00-6p5-0-5-3-2-1-0-0-3-2-1-0--0-||-00-1-00-2-00-3-00-5-00-6p5-0-5-3-2-1-0-0-3-2-1-0--0-|P.M...................................................
Tap to rate this tab
 
# A B C D E F G H I J K L M N O P Q R S T U V W X Y Z