1000 Travels Of Jawaharlal – With Smile And Slobber tab

www.myspace.com/1000travels  

1000 Travels of Jawaharlal - With Smile And Slobber
Credit: Billybusa (me)
Tuning: Standard

Guitar 1: Distortion

VERSE:E||------------------------------|------------------------------|B||------------------------------|------------------------------|G||--8--8-8--8-8-8--8-8-8--8-8-8-|------------------------------|D||--8--8-8--8-8-8--8-8-8--8-8-8-|--4--4-4--4-4-4--4-4-4--4-4-4-|A||--6--6-6--6-6-6--6-6-6--6-6-6-|--6--6-6--6-6-6--6-6-6--6-6-6-|E||------------------------------|--7--7-7--7-7-7--7-7-7--7-7-7-|
------------------------------|------------------------------|------------------------------|------------------------------|--8--8-8--8-8-8--8-8-8--8-8-8-|------------------------------|--8--8-8--8-8-8--8-8-8--8-8-8-|--4--4-4--4-4-4--4-8-8--8-4-4-|--6--6-6--6-6-6--6-6-6--6-6-6-|--6--6-6--6-6-6--6-6-6--6-6-6-|------------------------------|--7--7-7--7-7-7--7-7-7--7-7-7-|
------------------------------|------------------------------|------------------------------|------------------------------|--8--8-8--8-8-8--8-8-8--8-8-8-|------------------------------|--8--8-8--8-8-8--8-8-8--8-8-8-|--4--4-4--4-4-4--4-4-4--4-4-4-|--6--6-6--6-6-6--6-6-6--6-6-6-|--6--6-6--6-6-6--6-6-6--6-6-6-|------------------------------|--7--7-7--7-7-7--7-7-7--7-7-7-|
------------------------------|------------------------------|------------------------------|------------------------------|--8--8-8--8-8-8--8-8-8--8-8-8-|------------------------------|--8--8-8--8-8-8--8-8-8--8-8-8-|--4--4-4--4-4-4--4-8-8--8-4-4-|--6--6-6--6-6-6--6-6-6--6-6-6-|--6--6-6--6-6-6--6-6-6--6-6-6-|------------------------------|--7--7-7--7-7-7--7-7-7--7-7-7-|
------------------------------|------------------------------|------------------------------|------------------------------|--8--8-8--8-8-8--8-8-8--8-8-8-|------------------------------|--8--8-8--8-8-8--8-8-8--8-8-8-|--4--4-4--4-4-4--4-4-4--4-4-4-|--6--6-6--6-6-6--6-6-6--6-6-6-|--6--6-6--6-6-6--6-6-6--6-6-6-|------------------------------|--7--7-7--7-7-7--7-7-7--7-7-7-|
------------------------------|------------------------------|------------------------------|------------------------------|--8--8-8--8-8-8--8-8-8--8-8-8-|------------------------------|--8--8-8--8-8-8--8-8-8--8-8-8-|--4--4-4--4-4-4--4-8-8--8-4-4-|--6--6-6--6-6-6--6-6-6--6-6-6-|--6--6-6--6-6-6--6-6-6--6-6-6-|------------------------------|--7--7-7--7-7-7--7-7-7--7-7-7-|
------------------------------|------------------------------|------------------------------|------------------------------|--8--8-8--8-8-8--8-8-8--8-8-8-|------------------------------|--8--8-8--8-8-8--8-8-8--8-8-8-|--4--4-4--4-4-4--4-8-8--8-4-4-|--6--6-6--6-6-6--6-6-6--6-6-6-|--6--6-6--6-6-6--6-6-6--6-6-6-|------------------------------|--7--7-7--7-7-7--7-7-7--7-7-7-|
------------------------------|------------------------------|------------------------------|------------------------------|--8--8-8--8-8-8--8-8-8--8-8-8-|------------------------------|--8--8-8--8-8-8--8-8-8--8-8-8-|--4--4-4--4-4-4--4-8-8--8-4-4-|--6--6-6--6-6-6--6-6-6--6-6-6-|--6--6-6--6-6-6--6-6-6--6-6-6-|------------------------------|--7--7-7--7-7-7--7-7-7--7-7-7-|
------------------------------|------------------------------|------------------------------|------------------------------|--8--8-8--8-8-8--8-8-8--8-8-8-|------------------------------|--8--8-8--8-8-8--8-8-8--8-8-8-|--4--4-4--4-4-4--4-8-8--8-4-4-|--6--6-6--6-6-6--6-6-6--6-6-6-|--6--6-6--6-6-6--6-6-6--6-6-6-|------------------------------|--7--7-7--7-7-7--7-7-7--7-7-7-|
------------------------------|------------------------------|------------------------------|------------------------------|--8--8-8--8-8-8--8-8-8--8-8-8-|------------------------------|--8--8-8--8-8-8--8-8-8--8-8-8-|--4--4-4--4-4-4--4-8-8--8-4-4-|--6--6-6--6-6-6--6-6-6--6-6-6-|--6--6-6--6-6-6--6-6-6--6-6-6-|------------------------------|--7--7-7--7-7-7--7-7-7--7-7-7-|
PRE CHORUS:------------------------------|------------------------------|------------------------------|------------------------------|------------------------------|------------------------------|--2--2-2--2-2-2-3--3-3--3-3-3-|--5--5-5--5-5-5-5--5-5-5--5-5-|--2--2-2--2-2-2-3--3-3--3-3-3-|--5--5-5--5-5-5-5--5-5-5--5-5-|--0--0-0--0-0-0-1--1-1--1-1-1-|--3--3-3--3-3-3-3--3-3-3--3-3-|
CHORUS:--------------------------|--------------------------|--------------------------|--------------------------|--------------------------|--------------------------|------------8-------8-----|------------8-------8-----|-------6---------6-----6--|-------6---------6-----6--|--7-----------------------|--7-----------------------|
--------------------------|--------------------------|--------------------------|--------------------------|--------------------------|--------------------------|------------8-------8-----|------------8-------8-----|-------6---------6-----6--|-------6---------6-----6--|--7-----------------------|--7-----------------------|
-----------------------------------------------------------|-----------------------------------------------------------|---------------------------------------------8--8-8-8--8-8-|--2--2-2--2-2-2-4--4-4--4-4-4--5--5-5--5-5-5-x--x-x-x--x-x-|--2--2-2--2-2-2-4--4-4--4-4-4--5--5-5--5-5-5-6--6-6-6--6-6-|--0--0-0--0-0-0-2--2-2--2-2-2--3--3-3--3-3-3---------------|
--------------------------|--------------------------|--------------------------|--------------------------|--------------------------|--------------------------|------------8-------8-----|------------8-------8-----|-------6---------6-----6--|-------6---------6-----6--|--7-----------------------|--7-----------------------|
--------------------------|--------------------------|--------------------------|--------------------------|--------------------------|--------------------------|------------8-------8-----|------------8-------8-----|-------6---------6-----6--|-------6---------6-----6--|--7-----------------------|--7-----------------------|
Then just repeat verse, pre chorus and chorus Then on 2:19 play this:
--------------------------|--------------------------|----4-6-7-----------------|----4-6-7-----------------|--6----------6------------|--6-----------------------|--------------------------|-------------8------------|--------------------------|--------------------------|--------------------------|--------------------------|
--------------------------|--------------------------|----4-6-7-----------------|----4-6-7-----------------|--6----------6------------|--6-----------------------|--------------------------|-------------8------------|--------------------------|--------------------------|--------------------------|--------------------------|
--------------------------|--------------------------|----4-6-7-----------------|----4-6-7-----------------|--6----------6------------|--6-----------------------|--------------------------|-------------8------------|--------------------------|--------------------------|--------------------------|--------------------------|
--------------------------|--------------------------|----4-6-7-----------------|----4-6-7-----------------|--6----------6------------|--6-----------------------|--------------------------|-------------8------------|--------------------------|--------------------------|--------------------------|--------------------------|
2:35---------------------------------|------------------------------|---------------------------------|--7--7-6--7-----7--7-6--7-----|--8--6-8-6-8-6-8-6-8-6-8-6-8-6---|------------6-------------6---|-------------------------------8-|--------------8-------------8-|---------------------------------|------------------------------|---------------------------------|------------------------------|
------------------------------|------------------------------|------------------------------|--7--7-6--7-----7--7-6--7-----|--8--8-6--8-6---6--6--------6-|------------6-------------6---|--------------8------8--6-8---|--------------8-------------8-|------------------------------|------------------------------|------------------------------|------------------------------|
------------------------------|------------------------9-9-9-|--8--8-8--8-6---8--8-6--------|--------------8---------------|------------------------------|
------------------------------------------|------------------------------------------|--11--11-11--11-11-11-10--10-10--10-10-10-|---x---x--x---x--x--x--x---x--x---x--x--x-|---9---9--9---9--9--9--8---8--8---8--8--8-|------------------------------------------|
------------------------------|------------------------------|--8--8-8--8-8-8-6--6-6--6-6-6-|--x--x-x--x-x-x-x--x-x--x-x-x-|--6--6-6--6-6-6-4--4-4--4-4-4-|------------------------------|
------------------------------------------|------------------------------------------|--11--11-11--11-11-11-10--10-10--10-10-10-|---x---x--x---x--x--x--x---x--x---x--x--x-|---9---9--9---9--9--9--8---8--8---8--8--8-|------------------------------------------|
------------------------------------|------------------------------------|--8--8-8--8-8-8-15--15-15--15-15-15-|--x--x-x--x-x-x--x---x--x---x--x-x--|--6--6-6--6-6-6-13--13-13--13-13-13-|------------------------------------|
^^Repeat for a while Repeat pre chorus and chorus twice and you are done! Guitar 2: Distortion
E||------------------------------|------------------------------|B||------------------------------|------------------------------|G||--8--8-8--8-8-8--8-8-8--8-8-8-|------------------------------|D||--8--8-8--8-8-8--8-8-8--8-8-8-|--4--4-4--4-4-4--4-4-4--4-4-4-|A||--6--6-6--6-6-6--6-6-6--6-6-6-|--6--6-6--6-6-6--6-6-6--6-6-6-|E||------------------------------|--7--7-7--7-7-7--7-7-7--7-7-7-|
------------------------------|------------------------------|------------------------------|------------------------------|--8--8-8--8-8-8--8-8-8--8-8-8-|------------------------------|--8--8-8--8-8-8--8-8-8--8-8-8-|--4--4-4--4-4-4--4-8-8--8-4-4-|--6--6-6--6-6-6--6-6-6--6-6-6-|--6--6-6--6-6-6--6-6-6--6-6-6-|------------------------------|--7--7-7--7-7-7--7-7-7--7-7-7-|
------------------------------|------------------------------|------------------------------|------------------------------|--8--8-8--8-8-8--8-8-8--8-8-8-|------------------------------|--8--8-8--8-8-8--8-8-8--8-8-8-|--4--4-4--4-4-4--4-4-4--4-4-4-|--6--6-6--6-6-6--6-6-6--6-6-6-|--6--6-6--6-6-6--6-6-6--6-6-6-|------------------------------|--7--7-7--7-7-7--7-7-7--7-7-7-|
------------------------------|------------------------------|------------------------------|------------------------------|--8--8-8--8-8-8--8-8-8--8-8-8-|------------------------------|--8--8-8--8-8-8--8-8-8--8-8-8-|--4--4-4--4-4-4--4-8-8--8-4-4-|--6--6-6--6-6-6--6-6-6--6-6-6-|--6--6-6--6-6-6--6-6-6--6-6-6-|------------------------------|--7--7-7--7-7-7--7-7-7--7-7-7-|
00:20---------------------------------------------------------|---------------------------------------------------------|3--3-3--3-3-3------------------------------6--6-6-4--4-4-|x--x-x--x-x-x--6-6-6-4--3-3--4--4-6--6-4-3-x--x-x-x--x-x-|1--1-1--1-1-1--x-x-x-x--x-x--x--x-x--x-x-x-4--4-4-2--2-2-|---------------4-4-4-2--1-1--2--2-4--4-2-1---------------|
-----------------------------------------------------------|-----------------------------------------------------------|--3--3-3--3-3-3------------------------------6--6-6-4--4-4-|--x--x-x--x-x-x--6-6-6-4--3-3--4--4-6--6-4-3-x--x-x-x--x-x-|--1--1-1--1-1-1--x-x-x-x--x-x--x--x-x--x-x-x-4--4-4-2--2-2-|-----------------4-4-4-2--1-1--2--2-4--4-2-1---------------|
-----------------------------------------------------------|-----------------------------------------------------------|--3--3-3--3-3-3------------------------------6--6-6-4--4-4-|--x--x-x--x-x-x--6-6-6-4--3-3--4--4-6--6-4-3-x--x-x-x--x-x-|--1--1-1--1-1-1--x-x-x-x--x-x--x--x-x--x-x-x-4--4-4-2--2-2-|-----------------4-4-4-2--1-1--2--2-4--4-2-1---------------|
-----------------------------------------------------------|-----------------------------------------------------------|--3--3-3--3-3-3------------------------------6--6-6-4--4-4-|--x--x-x--x-x-x--6-6-6-4--3-3--4--4-6--6-4-3-x--x-x-x--x-x-|--1--1-1--1-1-1--x-x-x-x--x-x--x--x-x--x-x-x-4--4-4-2--2-2-|-----------------4-4-4-2--1-1--2--2-4--4-2-1---------------|
-----------------------------------------------------------|-----------------------------------------------------------|--8--8-8--8-8-8--8-8-8--8-8-8------------------------------|--8--8-8--8-8-8--8-8-8--8-8-8--4--4-4--4-4-4--4-8-8--8-4-4-|--6--6-6--6-6-6--6-6-6--6-6-6--6--6-6--6-6-6--6-6-6--6-6-6-|-------------------------------7--7-7--7-7-7--7-7-7--7-7-7-|
-----------------------------------------------------------|-----------------------------------------------------------|--8--8-8--8-8-8--8-8-8--8-8-8------------------------------|--8--8-8--8-8-8--8-8-8--8-8-8--4--4-4--4-4-4--4-8-8--8-4-4-|--6--6-6--6-6-6--6-6-6--6-6-6--6--6-6--6-6-6--6-6-6--6-6-6-|-------------------------------7--7-7--7-7-7--7-7-7--7-7-7-|
Pre chorus: -----------------------------------------------------------|-----------------------------------------------------------|---------------------------------------------8--8-8-8--8-8-|--2--2-2--2-2-2-4--4-4--4-4-4--5--5-5--5-5-5-x--x-x-x--x-x-|--2--2-2--2-2-2-4--4-4--4-4-4--5--5-5--5-5-5-6--6-6-6--6-6-|--0--0-0--0-0-0-2--2-2--2-2-2--3--3-3--3-3-3---------------|
Dunno about the rest of Guitar 2 but it's similar to Guitar 1 Enjoy!
Please rate this tab:
x1.0