1017 - Charing tab version 2

Tab by.,peter nanayon

note:kapa lang po ito.,hindeh xa gano kagaya nung actual song.,pero sa palagay ko pwede 
rin.,;'),retokehin nyo na lang kung sa palagay nyo may mali.,

sa mga runs kayo na bahala kung economy o legato.,

sa standard tuning ko xa kinapa.,pero half step down ung tuning ng song,.,kaya c# major 
ginamit ko.,sa halip na D major,

legend
p-pull off
h-hammer on
x-palm mute
/\-slide
*-pinch harmonic
t-tap

comments please..And rate.,

solo

|----------------------------||-16br-16-14-16p14-----------||--------------------15-13---||----------------------------||----------------------------||----------------------------|
|---------------------------||-------9h11p9--------------||-8h10----------8-10--------||---------------------------||---------------------------||---------------------------|
|-------------------------||-------------------------||-------------------------||-11-10-8-----------------||----------11-9-8---------||-------------------------|
|---------------------------||---------------------------||---------------------------||------------------8-10-11--||----------8-9-11-----------||-11-9h11-------------------|
|--------------------------||--------------------------||-8-10-11\13---------------||--------------------------||--------------------------||--------------------------|
|-----13-14-16--------------||-\16-----------16br-14-----||---------------------------||---------------------------||---------------------------||---------------------------|
|--------------------------||--------------------------||-15-13------13b*----------||--------15~---------------||--------------------------||--------------------------|
|----------------------------||----------------------------||-6\8-8*-6-5h6p5-------------||------------------8-6//-----||----------------------------||----------------------------|
|-------------------------||-------------------------||---5x-6x-6x-5x-6\8~------||-6x----------------------||-------------------------||-------------------------|
|----------------------------||----------------------------||---6x-8x-8x-6x-8\10~--------||-8x-------------------------||----------------------------||----------------------------|
|----------------------------||-------------6h7h9~---------||-5h6h8p6p5------------------||----------------------------||----------------------------||----------------------------|
|----8-9-11-11\13-11--------||-11------------------------||---------------------------||---------------------------||---------------------------||---------------------------|
|-9-8-8h9p8-----------------||-------------11-9----------||---------------------------||---------------------------||---------------------------||---------------------------|
|---------------------------||---------------------------||-10h11p10-8----------------||--------------11//---------||---------------------------||---------------------------|
|--------------------------||--------------------------||-10h11p10-8---------------||--------------11-10-8-----||--------------------------||--------------------------|
|---------------------------||---------------------------||---------------------------||---------------------------||-11-9-8--------------------||---------11-9-11-----------|
|---------------------------||---------------------------||------------------8-10-11--||---------8-10-11-----------||-8-9-11--------------------||---------------------------|
|--------------------9~-----||-9-11-t13\\-p11p9----------||---------------------------||---------------------------||---------------------------||---------------------------|
Tap to rate this tab
 
# A B C D E F G H I J K L M N O P Q R S T U V W X Y Z