10cc - Hot To Trot tab

This is a nice, little tune from 10cc which also is great fun to play.

Standard tuning

Riffs used:

F#m xx4222
B   x24442
A   x02220
E   022100
C#  x46664

Intro lick (Harmony) :

----------------------------------------------|----------------------------------------------|-------------------------------------------5--|--7-5-5-5-5---5-5-5-7----7-5-5-5-5---5-5h7--7-|----------------------------------------------|----------------------------------------------|
x2----------------------------------------------|-------------------------------------------8--|--9-7-7-7-7---7-7-7-9----9-7-7-7-7---7-7h9---9|----------------------------------------------|----------------------------------------------|----------------------------------------------|
1 Verse : F#m B A B E She had a shake like a belly dancer, and a body like a tiger tiger F#m E A B C# Uh,huh Uh,huh She was looking at me. F#m B A B E Now you know that i ain't no dancer, but there's gotta be a way to meet her F#m E F#m So I just walked up to her and said, are you hot to trot? Lick 1 (Harmony) :
--------------------|--------------------|--7b9--7-6-4-6-3b5--|--------------------|--------------------|--------------------|
x2--------------------|--6b8--6-5-3-5-2b4--|--------------------|--------------------|--------------------|--------------------|
Lick 2 (Harmony) :
---------------------------------|---------------------------------|-----------------------------0-1-|---------------0-1-2-3---3-4-----|-3---2-3-4-5---------------------|---------------------------------|
x2---------------------------------|---------------------------------|-----------------0-1-2---2-3-4-5-|-2---1-2-3-4---4-----------------|---------------------------------|---------------------------------|
Back to intro lick x2 Verse 2 and 3 are played just the same as verse 1 : Verse 2: Well I know I was looking cool, pretty sharp like a razor razor Uh,huh Uh,Huh She was smiling at me So I said if you got the notion, we could take a little trip to the ocean She said that'll be OK Cause I'm hot to trot. Lick 1 x2 Lick 2 x2 Back to intro lick x2 Verse 3: We were having a ball by the water, talking about life and philosophizing Uh,huh Uh,huh She was really talking to me She said I can't understand why you got to hustle Struttin' and posin' and flexin' muscle So I said, well that's easy baby I'm hot to trot Lick 1 x2 Then :
--------------------------------------------------------------|--------------------------------------------------------------|-----------------------------0-1---1-2-3-4--4-5-6-7--7-8-9-10-|---------------0-1-2-3---3-4----------------------------------|-3---2-3-4-5--------------------------------------------------|--------------------------------------------------------------|
--------------------------------------------------------------|-------------------------------------------------------6-7-8-9|-----------------0-1-2---2-3-4-5---5-6-7-8--8-9-10-11---------|-2---1-2-3-4---4----------------------------------------------|--------------------------------------------------------------|--------------------------------------------------------------|
For the outro the riff |---------| is played over the chord F |--13-----| |--13-----| |-----15--| |---------| |---------|
That's it, hope you'll enjoy it! If any comments mail me at morten_tjensen@hotmail.com
Tap to rate this tab
 
# A B C D E F G H I J K L M N O P Q R S T U V W X Y Z