12 Stones tab with lyrics by 12 Stones - Easy chords and tabs for guitar

12 Stones – 12 Stones tab

Band- 12 Stones
Album- 12 Stones

Tracks:
1.Crash
2.Broken
3.The Way I Feel
4.Open Your Eyes
5.Home
6.Fade Away
7.Back Up
8.Soulfire
9.In My Head
10.Running Out Of Pain
11.My Life
12.Eric's Song

******These are not my tabs,I give all credit to the people who originally tabbed these songs.

--------------------------------

1.CRASH
Tuning- Drop C

intro/verse--------------------------------------------------------|--------------------------------------------------------|-7----7-----7---10-----10-----10---9----9---9--5-4-5----|---00---00----0----00-----00-----0---00---00--0-5-5-5---|--------------------------------------------------------|--------------------------------------------------------|
chorus-----------------------|-----------------------|-----5555--------------|-000-5555--3333-5555---|-000-3333--3333-5555---|-000-------3333-5555---|repeat four times on fourth time play
-------------------------|-------------------------|-----5555----------------|-000-5555-333--5555-333--|-000-3333-333--5555-333--|-000------333--5555-333--| pm.........
bridge------------------------------|------------------------------|------------------------------|--00---00---------------------|--00---00--5-3-2-5-3-2--------|--00---00--5-3-2-5-3-2--------| pm...............
riff in the middle of verse 2-----------------------------------------|---------6h8p6-5h6p5-6p5-----------------|-5h7-5h7-----------------5-----5---5-7---|---------------------------5h7---7-------|-----------------------------------------|-----------------------------------------|
solo----------------------------------------------------|-------------------10-12-12b-12b-12b-12brp10----10--|-------------10----10-12-12b-12b-12b-12brp10----10--|-10/12-10-12----12---------------------------12-----|----------------------------------------------------|----------------------------------------------------|
--------------------------------13hb----------------|-----10-13-10-13-13/15-13-15-15------15-15-13h15p13-|-12-------------------------------------------------|----------------------------------------------------|----------------------------------------------------|----------------------------------------------------|
--------13-------13-------13-15b15b15b15brp13--13---------------|-----13----15-15----15-15--------------------15----15-13h15p13--|-14-------------------------------------------------------------|----------------------------------------------------------------|----------------------------------------------------------------|----------------------------------------------------------------|
------------13---------------------------------------------|-----13-15-----15-12brp10----10-12brp10-----10-------------|-14---------------12brp10----10-12brp10-----10-------------|--------------------------12-------------12-----12-10------|-------------------------------------------------------12--|-----------------------------------------------------------|
---------------------------------------------------------|---------------------------------------------------------|---------------------------------12brp10----10-12brp10---|-----------------------10----10----------12--------------|-10/8----8-----8-10/12----12-----------------------------|-------10---10-------------------------------------------|
---------------------------------------------------------|--------------13-----15-13h15p13----13-------12br--------|-----10-12/14----14--------------14----14/12-12br--------|-12------------------------------------------------------|---------------------------------------------------------|---------------------------------------------------------|
--------------|-10-12-10-----|-10-12-10-----|----------10--|--------------|--------------|
------------------------------------ 2.BROKEN Tuning- Drop D
IntroE-----------------|------------------|RB-----------------|------------------|EG-----------------|3/55-3-xx33-5-5---|PD-xxx-----xxx-----|x/xx-x-xxxx-x-x---|EA-xxx-0-0-xxx-0-0-|1/33-1-xx11-3-3---|AD-xxx-0-0-xxx-0-0-|------------------|T 1 + 2 + 3 + 4 + |1 + 2 + 3 + 4 + |
Intro for Guitar 2 (Expanded to show time)E---------------------------------|----------------------------------|RB---------------------------------|----------------------------------|EG-7-7-7-7-7-7-7-7-7-7-7-7-7-7-7-7-|10101010101010107-7-7-7-7-7-1010--|PD-x-x-x-x-x-x-x-x-x-x-x-x-x-x-x-x-|x-x-x-x-x-x-x-x-x-x-x-x-x-x-x-x---|EA-5-5-5-5-5-5-5-5-5-5-5-5-5-5-5-5-|8-8-8-8-8-8-8-8-5-5-5-5-5-5-8-8---|AD---------------------------------|----------------------------------|T 1 + + + 2 + + + 3 + + + 4 + + + |1 + + + 2 + + + 3 + + + 4 + + + |
VerseE-----------------|------------------|RB-----------------|------------------|EG-----------------|------------------|PD-----7-----------|------------------|EA---8---8-7/8-3/8-|----8-------8-----|AD-0---------------|8-10--108/10------|T 1 + 2 + 3 + 4 + |1 + 2 + 3 + 4 + |
ChorusE-----------------|------------------|RB-----------------|------------------|EG-----------------|3/55-3-xx33-5-5---|PD-xxx-----xxx-----|x/xx-x-xxxx-x-x---|EA-xxx-0-0-xxx-0-0-|1/33-1-xx11-3-3---|AD-xxx-0-0-xxx-0-0-|------------------|T 1 + 2 + 3 + 4 + |1 + 2 + 3 + 4 + |
Chorus for Guitar 2 (Expanded to show time)E---------------------------------|----------------------------------|RB---------------------------------|----------------------------------|EG-7-7-7-7-7-7-7-7-7-7-7-7-7-7-7-7-|10101010101010107-7-7-7-7-7-1010--|PD-x-x-x-x-x-x-x-x-x-x-x-x-x-x-x-x-|x-x-x-x-x-x-x-x-x-x-x-x-x-x-x-x---|EA-5-5-5-5-5-5-5-5-5-5-5-5-5-5-5-5-|8-8-8-8-8-8-8-8-5-5-5-5-5-5-8-8---|AD---------------------------------|----------------------------------|T 1 + + + 2 + + + 3 + + + 4 + + + |1 + + + 2 + + + 3 + + + 4 + + + |
After 2nd ChorusE-----------------|------------------|RB-----------------|------------------|EG-----9-9-10101212|----9-9-10109-9---|PD-----x-x-x-x-x-x-|----x-x-x-x-x-x---|EA-0-0-7-7-8-8-1010|0-0-7-7-8-8-7-7---|AD-0-0-------------|0-0---------------|T 1 + 2 + 3 + 4 + |1 + 2 + 3 + 4 + |
Bridge E-----------------|----------------|----------------|----------------|R
B-----------------|----------------|----------------|------------------|EG-----------------|----------------|----------------|------------------|PD-----------------|----------------|----------------|10108-8-7-7-8-8---|EA-----8-8-7-7-8-8-|10108-8-7-7-5-5-|8---8-8-7-7-8-8-|------------------|AD-0-0-------------|----------------|8---------------|------------------|T 1 + 2 + 3 + 4 + |1 + 2 + 3 + 4 + |1 + 2 + 3 + 4 + |1 + 2 + 3 + 4 + |
E-----------------|----------------|----------------|----------------|B-----------------|----------------|----------------|----------------|G-----------------|----------------|----------------|----------------|D-----------------|----------------|----------------|1010101010101010| < bend stringA-----8-8-7-7-8-8-|10108-8-7-7-5-5-|8---8-8-7-7-8-8-|----------------|D-0-0-------------|----------------|8---------------|----------------| 1 + 2 + 3 + 4 + |1 + 2 + 3 + 4 + |1 + 2 + 3 + 4 + |1 + 2 + 3 + 4 + |
--------------------------------- 3.THE WAY I FEEL Tuning- Drop C
Verse--------------------------------------|--------------------------------------|--------------------------------------|-----10-----10-------10-----10---10---|---8----8----------8----8-------------|-0--------0----0-8--------8----8------|
--------------------------------------|--------------------------------------|---------------------------------10---|-----10-----10-------10-----10--------|---8----8----------8----8-------------|-0--------0----0-8--------8----8------|
Chorus----------------------------------------------------|----------------------------------------------------|---------3-3-3-3------------------------------------|-x-x-0-0-3-3-3-3-3-3-3-5-5-5-5-3h5------------------|-x-x-0-0-1-1-1-1-3-3-3-5-5-5-5-3h5------------------|-x-x-0-0---------3-3-3-5-5-5-5-3h5------------------|
--------------------------------|--------------------------------|------3-3-3-3-5-5-x-x-5-5-x-x-5-|--0-0-3-3-3-3-5-5-x-x-5-5-x-x-5-|--0-0-1-1-1-1-3-3-x-x-3-3-x-x-3-|--0-0---------------------------|
------------------------------------- 4.OPEN YOUR EYES Tuning- Drop C
Intro and Outro|--------------------||--------------------||----------11-11-----||-----------x--x-----||-*3-*3-*3--9--9-----||-*3-*3-*3-----------|
Chorus|----------------------------------------------------||----------------------------------------------------||-------11-11------11-11-------14-14-14-12-12--------||-0-0-0--x--x-0-0-0-x--x-10-10--x--x--x--x--x--------||-0-0-0--9--9-0-0-0-9--9-10-10-12-12-12-10-10--------||-0-0-0-------0-0-0------10-10-----------------------|
Verse- played with a phaser|-------------------------------------------------||-------3---2-------------------------------------||---2-----------2---2-----0---5---4---0---0---0---||-----0-------0---0---0---------------------------||-----------------------3---3---3---3---3---3---3-||-0-------0---------------------------------------|
|-------------------------------------------------||-------3---/7-7-5-3------------------------------||---2---------------------0---5-----5---5-7p5---5-||-----0---0----------0----------5/7---7-------7---||-----------------------3---3---------------------||-0-----------------------------------------------|
Little riff after first chorus|-2-2h3-3p2-2p0------||--------------------||--------------------||--------------------||--------------------||--------------------|
Little riff in 2nd verse 2x|-9h10p9-------7h8p7-----------------||--------10----------8---8-10--------||-----------11---------9-------------||------------------------------------||------------------------------------||------------------------------------|
Bridge|-1h2-----2---2---2---2--2h3-----3---3p1---1---1---||--------------------------------------------------||--------------------------------------------------||-----0-0---0---0---0--0-----0-0---0-----0---0---0-||--------------------------------------------------||--------------------------------------------------|
Leading out of the bridge is this
|-------------------------||-------------------------||-11-11-11-11-11-11-11-11-||--x--x--x--x--x--x--x--x-||--9--9--9--9--9--9--9--9-||-------------------------|
---------------------------------- 5.HOME Tuning- Drop C
d|---------------------/------------------------------------|a|---------------------/------------------------------------|f|------------5-----5--/-------------5-----5-10-10-10/12-12-|c|------3---2---2-2----/-------3---2---2-2----8--8--8-10-10-|g|----5---0------------/-----5---0------------8--8--8-10-10-|c|--0------------------/---0------------------8--8--8-10-10-|
repeat this 6 timesd|-------------/a|-------------/f|-12-12-12-12-/c|-10-10-10-10-/g|-10-10-10-10-/c|-10-10-10-10-/
pre chorusd|-------------------------------------------------|a|-------------------------------------------------|f|-10-10-10-10-10-10-10-10-12-12-12-12-12-12-12-12-|c|--8--8--8--8--8--8--8--8-10-10-10-10-10-10-10-10-|g|--8--8--8--8--8--8--8--8-10-10-10-10-10-10-10-10-|c|--8--8--8--8--8--8--8--8-10-10-10-10-10-10-10-10-| repeat twice
chorusd|----------------------------------------------------|a|----------------------------------------------------|f|------5-7-----5-7-------------5-7-----5-7---5-5-7---|c|-0----5-7-----5-7--------0----5-7-----5-7---5-5-7---|g|-0-00-3/5-000-3/5-----3--0-00-3/5-000-3/5---3-3-5---|c|-0-00-----000-------5~3--0-00-----000---------------| repeat twice
solod|-----------------------------------------555--|a|-------888-666-555-----------888-666-555------|f|--7777-------------555--7777------------------|c|----------------------------------------------|g|----------------------------------------------|c|----------------------------------------------|
repeat this twiced|-----------151515-131313-121212------------------151515-|a|--15151515----------------------131313--15151515--------|f|--------------------------------------------------------|c|--------------------------------------------------------|g|--------------------------------------------------------|c|--------------------------------------------------------|
-131313-121212-171717-| ----------------------| ----------------------| ----------------------| ----------------------| ----------------------|repeat twice
-------------------------------- 6.FADE AWAY Tuning- Drop C
Intro/Verse:--------------------------------------------------------------------------|--------------------------------------------------------------------------|--------------------------------------------------------------------------|-----7-----7---7-------10-----10---10-------7-----7---7------7-----7------|---5---5-------------8----8---------------5---5------------5---5----------|-0-------0---0-----8--------8----8------5-------5---5----5-------5---5-7--|
-----------------------------------------------------------------|-----------------------------------------------------------------|-----------------------------------------------------------------|-----7-----7---7-------10-----10---10-------7-----7---7-----x-x--|---5---5-------------8----8---------------5---5-------------x-x--|-0-------0---0-----8--------8----8------5-------5---5-------x-x--|
Chorus:--------------------------------------|--------------------------------------|--------------------------------------|-0-0-----8-8-----5-5-------5-5---5-7--|-0-0-----8-8-----5-5-----x-5-5-x-5-7--|-0-0-----8-8-----5-5-----x-5-5-x-5-7--|
------------------------------------------------|------------------------------------------------|-0-0---------8-8---------5-5---------5-5---5-7--|-0-0--x-x--x-8-8--x-x--x-5-5--x-x-x--5-5-x-5-7--|-0-0--x-x--x-8-8--x-x--x-5-5--x-x-x--5-5-x-5-7--|
Break:--------------------------------|--------------------------------|--------------------------------|---------------------------5-5--|-0-3-2-0-3-2-0-3-2-0-3-2---5-5--|-0-3-2-0-3-2-0-3-2-0-3-2---5-5--| . . . . . . . . . . . .
I haven't figured out the solo yet.
--------------------------------|--------------------------------|--------------------------------|--------------------------------|-0-3-2-0-3-2-0-3-2-0-3-2---5-5--|-0-3-2-0-3-2-0-3-2-0-3-2---5-5--|
------------------------------------ 7.BACK UP Tuning- Drop C
intro/chorous.....gtr 1D|------------------------------||A|------------------------------||F|------------------------------||C|--2------5------0------7------||G|--2------5------0------7------||C|--2------5------0------7------||
continued intro....this is played while gtr 2 plays some wierd stuff with a phase shifter
D|--------------------------------||A|--------------------------------||F|--------------------------------||C|--2-2-----5-5-----0-0-----7-7---||G|--2-2-2/5-5-5-5/0-0-0-0/7-7-7-7-||C|--2-2-2/5-5-5-5/0-0-0-0/7-7-7-7-||
verse
D|--------------------------------||A|--------------------------------||F|--------------------------------||C|--------------------------------||G|-2-2-x-2-2-xx-0-0-xx-2-2-xx-----||C|-2-2-x-2-2-xx-0-0-xx-2-2-xx-----||
----------------------------------------- 8.SOULFIRE Tuning- Drop C
Intro ends with this|--------------------------------|----------------------------||--------------------------------|----------------------------||-5h7-----7-----7----8-----8-----|-5h7-----7-----7--/10-10-10-||-0---0-0---0-0---0----0-0---0-0-|-0---0-0---0-0---0----------||--------------------------------|----------------------------||--------------------------------|----------------------------|
Chorus ends with this|----------------------------|--------------------------------||----------------------------|--------------------------------||-------5/7-7-7-8-8-8-8------|-------5/7-7-7-10-10-10-10-10---||-0-0-0-x-x-x-x-x-x-x-x------|-0-0-0-x-x-x-x-x--x--x--x--x----||-0-0-0-3/5-5-5-6-6-6-6------|-0-0-0-3/5-5-5-8--8--8--8--8----||-0-0-0----------------------|-0-0-0--------------------------| pm. pm.
Verse- no guitar
Bridge|--------------------||--------------------||-----8-8-8-8--------||-0-0-x-x-x-x--------||-0-0-6-6-6-6--------||-0-0----------------| pm.
------------------------------- 9.IN MY HEAD Tuning- Drop C
Verse|---------------------------------------------------||-------------------3-------------------------------||---------2-----2h5--------0h2-5-4-2-5-4-2-0--------||-----3h5----0-----------3--------------------------||---------------------------------------------------||-0-0------------------3----------------------------|
|-------------------------------------------------||-------------------------------------------------||-----------5---------2-----------3-----3-----3---||---5-----5---5---3-5-----3-----3---3-----3-------||-3---3-3-------3-------1---1-1-------1-----1-----||-------------------------------------------------|
Prechorus|-1-1-1-1-1---------------3-3-3-3-3-3-1-1-1-1-1-1-1------||-3-3-3-3-3-3-3-3-3-3-3-3-5-5-5-5-5-5-3-3-3-3-3-3-3------||-3-3-3-3-3-2-2-2-2-2-2-2-5-5-5-5-5-5-3-3-3-3-3-3-3------||-3-3-3-3-3-0-0-0-0-0-0-0-5-5-5-5-5-5-3-3-3-3-3-3-3------||-1-1-1-1-1-0-0-0-0-0-0-0-3-3-3-3-3-3-1-1-1-1-1-1-1------||-----------0-0-0-0-0-0-0--------------------------------|
Chorus|---------------------------------------------------------||---------------------------------------------------------||---------------------------5-3-3-3-3-3-5-5-5-------------||-------------------0-0-0-0-5-3-3-3-3-3-5-5-5-3-----------||-3-2-0-5-3-2-0-3-2-0-0-0-0-3-1-1-1-1-1-3-3-3-3-----------||-3-2-0-5-3-2-0-3-2-0-0-0-0-------------------3-----------| pm................
Bridge|-----------------------------------------------------------||-----------------------------------------------------------||---2---3-3-3---------------2---3-3-3-----------------------||-0-2-0-3-3-3-5-5-5-7-7-7-0-2-0-3-3-3-----------------------||-0-0-0-1-1-1-5-5-5-7-7-7-0-0-0-1-1-1-3-2-0-5-3-2-0-3-2-----||-0---0-------5-5-5-7-7-7-0---0-------3-2-0-5-3-2-0-3-2-----| pm...............
----------------------------------- 10.RUNNING OUT OF PAIN Tuning- 1/2 step down
Verse-------------------------------------------------------------|-------------------------------------------------------------|-------0-0-----------0-0-----------0-0-----------0-0---------|-----4-----4-------4-----4-------4-----4-------4-----4-------|---2---------2---2---------2---2---------2---2---------2-----|-2-------------2-------------0-------------0-----------------|
-----------------------------------------------------------|--------3-3-----0-----3-0------------5-5-----0-----5-0-----|---0--------0-----0-------0------0-------0-----0-------0---|-----2--------2-----2-------2------4-------4-----4-------4-|-3-----------------------------5---------------------------|-----------------------------------------------------------|
Chorus--------------------------------------------------------------------------|--------------------------------------------------------------------------|-------------------------------------5-5-5-5-5-5-5-5-5-5-7-7-7-7-7-7-7-7--|-2-2-2-2-2-2-2-2-2-4-0-0-0-0-0-0-0-0-5-5-5-5-5-5-5-5-5-5-7-7-7-7-7-7-7-7--|-2-2-2-2-2-2-2-2-2-4-0-0-0-0-0-0-0-0-3-3-3-3-3-3-3-3-3-3-5-5-5-5-5-5-5-5--|-2-2-2-2-2-2-2-2-2-4-0-0-0-0-0-0-0-0--------------------------------------|
Bridge--------------------------------------------------------------------|--------------------------------------------------------------------|--------------------------------------------------------------------|-2-2-2-5-4-2-4-2-4-5-0-0-0-4-2-0-2-0-2-4----------------------------|-2-2-2-5-4-2-4-2-4-5-0-0-0-4-2-0-2-0-2-4----------------------------|-2-2-2-5-4-2-4-2-4-5-0-0-0-4-2-0-2-0-2-4----------------------------|
--------------------------------- 11.MY LIFE Tuning- Drop D INTRO:
E|-----------------------------------------------||B|-----------------------------------------------||G|--2---3-2---2---2-3-2-----2---3-2---3-2--------||D|0---0-----0---0-------0-0---0-----0-----0--3-3-|| Repeat this x2A|-------------------------------------------3-3-||D|-------------------------------------------3-3-|| (Turn distortion on for this ^ ^ then turn it off)
VERSE:E|------------------------------------------------||B|------------------------------------------------||G|--2---3-2---2---2-3-2---2---3-2---2---2-3-2-----||D|0---0---------0-----------0---------0-----------|| Repeat this x4A|----------3-----------1---------0---------------||D|------------------------------------------------||
CHOURUS: (Distortion on)
E|---------------------------------------------------------||B|---------------------------------------------------------||G|---------------------------------------------------------||D|0-x-x-3/5-5-5--10-10-10-8-8---0-x-x-3/5-5-5--8-8-8-7--7--||A|0-x-x-3/5-5-5--10-10-10-8-8---0-x-x-3/5-5-5--8-8-8-7--7--||D|0-x-x-3/5-5-5--10-10-10-8-8---0-x-x-3/5-5-5--8-8-8-7--7--||
E|---------------------------------------------------------||B|---------------------------------------------------------||G|---------------------------------------------------------||D|0-x-x-3/5-5-5--10-10-10-8-8---7-7-7-7-7-7--3-3-5-5-x-x---||A|0-x-x-3/5-5-5--10-10-10-8-8---7-7-7-7-7-7--3-3-5-5-x-x---||D|0-x-x-3/5-5-5--10-10-10-8-8---7-7-7-7-7-7--3-3-5-5-x-x---||
Repeat VERSE then Repeat chourus x2 (Distortion stays on from here)
BRIDGE:E|-----------------------------------||B|-----------------------------------||G|--------10--------10----10---------||D|--------9---------9-----9----------||A|--------7---------7-----7----------||D|0-0-0-0---0-0-0-0---0-0------------|| Repeat x4, final time play:
E|---------------------------------||B|---------------------------------||G|--------10-----------------------||D|--------9-------5-3-2-3-2-1------||A|--------7-------5-3-2-3-2-1------||D|0-0-0-0----0-0--5-3-2-3-2-1------|| ( ^ ^ ^ ^ ^ ^Palm mute these)
Repeat the BRIDGE then while the solo plays plat the CHOURUS x2 I dont actually know the solo but if i figure it out i'll re-make the tab and ad it on. Once your done,Play the CHOURUS x2 then OUTRO:
E|--------------------------------||B|--------------------------------||G|--------------------------------||D|7-7-7-7-7-7-3-x-3-5-5-x-x-0-----||A|7-7-7-7-7-7-3-x-3-5-5-x-x-0-----||D|7-7-7-7-7-7-3-x-3-5-5-x-x-0-----||
-------------------------------------- 12.ERICS SONG Tuning- Standard
Verse-----------8-7-----------8-7-----------8-7---------------|---6---6---------6---6---------6---6---------6---8p6---6-|-7---7---7-----7---7---7-----7---7---7-----7---7-----7---|---------------------------------------------------------|---------------------------------------------------------|---------------------------------------------------------|
Chorus---------------------------------------------------------|---------------------------------------------------------|-----------3-3-3-3/5-5---------------5-5-5---------------|-5-5-5-5-5-3-3-3-3/5-5-5-5-5-5-5-3-3-5-5-5---------------|-5-5-5-5-5-1-1-1-1/3-3-5-5-5-5-5-3-3-3-3-3---------------|-3-3-3-3-3-------------3-3-3-3-3-1-1---------------------|
Riff after first chorus---------------------8-----7-----------------------------|---6---6-----6---6-----6-----6---------------------------|-7---7-----7---7---7-----7-----7-------------------------|---------------------------------------------------------|---------------------------------------------------------|---------------------------------------------------------|
ENJOY!!!
Please rate this tab:
x1.0