2 Minutos - Meconverti En Un Marciano tab


Tablatura de NICO M. (nicokbbl@hotmail.com)

Artista: 2 Minutos
Cancion: Me Converti En Un Marciano
Album: Invacion 99 (1999)


Intro

1|---------------------------------------------------------|2|---------------------------------------------------------|3|--------7------------------------------------------------|4|--5--7--7------------------------------------------------|5|--5--7--5------------------------------------------------|6|--3--5---------------------------------------------------|
Vamos!!
1|---------------------------------------------------------|2|---------------------------------------------------------|3|----------7-7-7--------------7-7-7-----------------------|x24|--9-9-9-9-7-7-7-7-7--9-9-9-9-7-7-7-7-7-------------------|5|--9-9-9-9-5-5-5-7-7--9-9-9-9-5-5-5-7-7-------------------|6|--7-7-7-7-------5-5--7-7-7-7-------5-5-------------------|
1|---------------------------------------------------------|2|---------------------------------------------------------|3|----------7-7-7--------------7-7-7-----------------------|4|--9-9-9-9-7-7-7-7-7--9-9-9-9-7-7-7-7-7-------------------|5|--9-9-9-9-5-5-5-7-7--9-9-9-9-5-5-5-7-7-------------------|6|--7-7-7-7-------5-5--7-7-7-7-------5-5-------------------|
Mi mente es algo terrible Una forma para matar
1|---------------------------------------------------------|2|---------------------------------------------------------|3|----------7-7-7--------------7-7-7-----------------------|4|--9-9-9-9-7-7-7-7-7--9-9-9-9-7-7-7-7-7-------------------|5|--9-9-9-9-5-5-5-7-7--9-9-9-9-5-5-5-7-7-------------------|6|--7-7-7-7-------5-5--7-7-7-7-------5-5-------------------|
No es un cuerpo de la tierra, noo Ni la cara que te amó
1|---------------------------------------------------------|2|---------------------------------------------------------|3|----------------7--7-------------------------------------|x84|--5-5-5-5-7-7-7-7--7-7-5---------------------------------|5|--5-5-5-5-7-7-7-5--5-7-5---------------------------------|6|--3-3-3-3-5-5-5------5-3---------------------------------|
Me converti en un marciano Uo , ho ho Y me llaman por mi nombre Uo , ho ho Por las noches no puedo dormir Uo , ho ho Me converti en un marciano
1|---------------------------------------------------------|2|---------------------------------------------------------|3|----------7-7-7--------------7-7-7-----------------------|x24|--9-9-9-9-7-7-7-7-7--9-9-9-9-7-7-7-7-7-------------------|5|--9-9-9-9-5-5-5-7-7--9-9-9-9-5-5-5-7-7-------------------|6|--7-7-7-7-------5-5--7-7-7-7-------5-5-------------------|
1|---------------------------------------------------------|2|---------------------------------------------------------|3|----------7-7-7--------------7-7-7-----------------------|4|--9-9-9-9-7-7-7-7-7--9-9-9-9-7-7-7-7-7-------------------|5|--9-9-9-9-5-5-5-7-7--9-9-9-9-5-5-5-7-7-------------------|6|--7-7-7-7-------5-5--7-7-7-7-------5-5-------------------|
Caminando por el subterraneo Los humanos estan arriba del mundo
1|---------------------------------------------------------|2|---------------------------------------------------------|3|----------7-7-7--------------7-7-7-----------------------|4|--9-9-9-9-7-7-7-7-7--9-9-9-9-7-7-7-7-7-------------------|5|--9-9-9-9-5-5-5-7-7--9-9-9-9-5-5-5-7-7-------------------|6|--7-7-7-7-------5-5--7-7-7-7-------5-5-------------------|
No me gusta este mundo Y yo quiero salir de aqui
1|---------------------------------------------------------|2|---------------------------------------------------------|3|----------------7--7-------------------------------------|x84|--5-5-5-5-7-7-7-7--7-7-5---------------------------------|5|--5-5-5-5-7-7-7-5--5-7-5---------------------------------|6|--3-3-3-3-5-5-5------5-3---------------------------------|
Me converti en un marciano Uo , ho ho Y me llaman por mi nombre Uo , ho ho Por las noches no puedo dormir Uo , ho ho Me converti en un marciano
1|---------------------------------------------------------|2|---------------------------------------------------------|3|---------------------------------------------------------|x44|--7-7-7-7-5-5-5-5----------------------------------------|5|--7-7-7-7-5-5-5-5----------------------------------------|6|--5-5-5-5-3-3-3-3----------------------------------------|
1|---------------------------------------------------------|2|---------------------------------------------------------|3|----------------7--7-------------------------------------|x84|--5-5-5-5-7-7-7-7--7-7-5---------------------------------|5|--5-5-5-5-7-7-7-5--5-7-5---------------------------------|6|--3-3-3-3-5-5-5------5-3---------------------------------|
Me converti en un marciano Uo , ho ho Y me llaman por mi nombre Uo , ho ho Por las noches no puedo dormir Uo , ho ho Me converti en un marciano Uo , ho ho Por las noches no puedo dormir Me converti en un marciano Uo , ho ho Uo , ho ho
Tap to rate this tab
 
# A B C D E F G H I J K L M N O P Q R S T U V W X Y Z