2ne1 - I Am The Best tab

This is my first tab hope you like
email me corrections at GuitaristKuma@Gmail.Com
=] Thanks ~

I Am The Best (2NE1) Tab

--------------------------------------------|--------------------------------------------|-----5-5-5--5-5--5-3------------------------|-------------------6-5----------------------| x6-3-3-------------------6-5------------------|--------------------------------------------|
--------------------------------------------|--------------------------------------------|--------------------------------------------|--------------------------------------------| x3-3-3-3-3-3--3-4-3-4-3-7---------------------|--------------------------------------------|
--------------------------------------------|--------------------------------------------|--------------------------------------------|--------------------------------------------|-3-3-3-3-3--3-4-3-4~------------------------|--------------------------------------------|
--------------------------------------------|--------------------------------------------|-----------------------------5-5----5-5-----|------------------2-2-2-2-------------------|-3-3-3-3-3-3-3-3--3-3-3-3--3-----3-3--------|--------------------------------------------|
--------------------------------------------|--------------------------------------------|----------------------------5-5-------------|----------------3-3-3-3--2-------2~---------|-3-3-3-3-3-3-3--3-3-3-3---------------------|--------------------------------------------|
--------------------------------------------|--------------------------------------------|--------------------------------------------|-7-7-5-5-2-2------7-7-5-5-2-2---------------|-------------3-3--------------3-------------|--------------------------------------------|
--------------------------------------------|--------------------------------------------|--------------------------------------------|-7-7-5-5-2-2-----7-7-5-5-2-2-5--------------|-------------3-3----------------------------|--------------------------------------------|
--------------------------------------------|--------------------------------------------|--------------------------------------------|--------------------------------------------| x2-3-3-3-3-3-3-3-3-1-1-1-1-3-3----------------|--------------------------------------------|
--------------------------------------------|--------------------------------------------|-----5-5-5--5-5--5-3------------------------|-------------------6-5----------------------| x8-3-3-------------------6-5------------------|--------------------------------------------|
--------------------------------------------|--------------------------------------------|-----------------------------5-5----5-5-----|------------------2-2-2-2-------------------|-3-3-3-3-3-3-3-3--3-3-3-3--3-----3-3--------|--------------------------------------------|
--------------------------------------------|--------------------------------------------|----------------------------5-5-------------|----------------3-3-3-3--2-------2~---------|-3-3-3-3-3-3-3--3-3-3-3---------------------|--------------------------------------------|
--------------------------------------------|--------------------------------------------|--------------------------------------------|-7-7-5-5-2-2------7-7-5-5-2-2---------------|-------------3-3--------------3-------------|--------------------------------------------|
--------------------------------------------|--------------------------------------------|--------------------------------------------|-7-7-5-5-2-2-----7-7-5-5-2-2-5--------------|-------------3-3----------------------------|--------------------------------------------|
--------------------------------------------|--------------------------------------------|--------------------------------------------|--------------------------------------------| x2-3-3-3-3-3-3-3-3-1-1-1-1-3-3----------------|--------------------------------------------|
--------------------------------------------|--------------------------------------------|-----5-5-5--5-5--5-3------------------------|-------------------6-5----------------------| x8-3-3-------------------6-5------------------|--------------------------------------------|
here just alternate with Am and Bm (strum 5 each )Am: Bm:--|----|----|---- --1-|-----|-----|-----|-1|----|----|---- ----|---2-|-----|-----|--|--2-|----|---- ----|-----|---3-|-----|--|--3-|----|---- ----|-----|---4-|-----|--|----|----|---- --1-|-----|-----|-----|--|----|----|---- ----|-----|-----|-----|(1st fret) (2nd fret)
--------------------------------------------|--------------------------------------------|--------------------------------------------|--------------------------------------------| x3-3-3-3-3-3--3-4-3-4-3-7---------------------|--------------------------------------------|
--------------------------------------------|--------------------------------------------|--------------------------------------------|--------------------------------------------|-3-3-3-3-3--3-4-3-4~------------------------|--------------------------------------------|
Tap to rate this tab
 
# A B C D E F G H I J K L M N O P Q R S T U V W X Y Z