3 Doors Down – When Youre Young tab ver. 2

Title: When You're Young
Artist: 3 Doors Down
Tempo = 78
Electric Guitar 1

Legend
L - tied note
x - dead note
h - hammer on/pull off
b - bend
s - slide
~ - vibrato
g - ghost note
> - accentuated note
t - trill
M - palm mute
. - staccato
P - popping (bass)
S - slapping (bass)
+ - tapping
W - wide vibrato
< - fade in
w - whammy bar
= - tremolo picking
v - brush up
^ - brush down
V - pick stroke up
n - pick stroke down


E |----------------------------------------------------|B |--------------0h-1-----1--------0h-1-----1----------|G |-----------2--------2--------2--------2--------2----|D |--------2-------------------------------------------|A |--0-------------------------------------------------|E |----------------------------------------------------|
----------------------------------------------------|--------------0h-1-----1--------3h-1h-0-------------|-----------0--------2--------2-----------0----------|--------2--------------------------------------2----|--3-------------------------------------------------|----------------------------------------------------|
----------------------------------------------------|--------------------------------------1h-0----------|--------------0h-2--------------------------0-------|--------0h-2--------3--------------------------2----|----------------------------------------------------|--1-------------------------------------------------|
----------------------------------------------------|--0--------0h-1h-0----------------------------------|--------------------0L----0-------------------------|----------------------------------------------------|----------------------------------------------------|----------------------------------------------------|
----------------------------------------------------|--------------0h-1-----1--------0h-1-----1----------|-----------2--------2--------2--------2--------2----|--------2-------------------------------------------|--0-------------------------------------------------|----------------------------------------------------|
----------------------------------------------------|--------------0h-1-----1--------0h-1-----1----------|-----------0--------2--------2--------2--------2----|--------2-------------------------------------------|--3-------------------------------------------------|----------------------------------------------------|
----------------------------------------------------|--------------0h-1-----1--------0h-1-----1----------|-----------2--------2--------2--------2--------2----|--------2-------------------------------------------|----------------------------------------------------|--1-------------------------------------------------|
----------------------------------------------------|--0--------0h-1h-0----------------------------------|--------------------0L----0-------------------------|----------------------------------------------------|----------------------------------------------------|----------------------------------------------------|
----------------------------------------------------|--------------0h-1-----1--------0h-1-----1----------|-----------2--------2--------2--------2--------2----|--------2-------------------------------------------|--0-------------------------------------------------|----------------------------------------------------|
----------------------------------------------------|--------------0h-1-----1--------0h-1-----1----------|-----------2--------2--------2--------2--------2----|--------2-------------------------------------------|--3-------------------------------------------------|----------------------------------------------------|
----------------------------------------------------|--------------0h-1-----1--------0h-1-----1----------|-----------2--------2--------2--------2--------2----|--------2-------------------------------------------|----------------------------------------------------|--1-------------------------------------------------|
----------------------------------------------------|--0--------0h-1h-0----------------------------------|--------------------0L----0-------------------------|----------------------------------------------------|----------------------------------------------------|----------------------------------------------------|
--1--------1--------1--------1--------1-------------|-----3--------3--------3--------3--------3----------|--------2--------2--------2--------2--------2-------|----------------------------------------------------|----------------------------------------------------|----------------------------------------------------|
--3--------3--------3-----------------3-------------|--3--------3--x--x--3-----------------3-------------|--0--------0--x--x--0-----------------0-------------|--0--------0--x--x--0-----------------0-------------|--2--------2--x--x--2-----------------2-------------|--3--------3--x--x--3-----------------3-------------|
--0--------0--------0--------0--------0-------------|-----1--------1--------1--------1--------1----------|--------2--------2--------2--------2--------2-------|----------------------------------------------------|----------------------------------------------------|----------------------------------------------------|
--0--------0--------0-----------------------0-------|--2--------2--x--x--2-----------------2--3----------|--2--------2--x--x--2-------------------------------|--2--------2--x--x--2-------------------------------|--0--------0--x--x--0-------------------------------|----------------------------------------------------|
--1--------1--------1--------1--------1-------------|-----3--------3--------3--------3--------3----------|--------2--------2--------2--------2--------2-------|----------------------------------------------------|----------------------------------------------------|----------------------------------------------------|
--3--------3--------3-----------------3-------------|--3--------3--x--x--3-----------------3-------------|--0--------0--x--x--0-----------------0-------------|--0--------0--x--x--0-----------------0-------------|--2--------2--x--x--2-----------------2-------------|--3--------3--x--x--3-----------------3-------------|
----------------------------------------------------|--------------0h-1--------------------0h-1----------|-----------2--------2--------------2--------2-------|--------2-----------------------2-------------------|--0-------------------------------------------------|----------------------------------------------------|
--------------------1L----------------------1-------|--------------0h-1----------------------------------|-----------2----------------------------------------|--------2-------------------------------------------|--0-------------------------------------------------|----------------------------------------------------|
----------------------------------------------------|----------------------------------------------------|--2--------2--2M-2M-5-----------5-------------------|--2--------2--2M-2M-5-----------5-------------------|--0--------0--0M-0M-3-----------3-------------------|----------------------------------------------------|
----------------------------------------------------|----------------------------------------------------|----------------------------------------------------|--3--------3--3M-3M-5-----------------5-------------|--3--------3--3M-3M-5-----------------5-------------|--1--------1--1M-1M-3-----------------3-------------|
----------------------------------------------------|----------------------------------------------------|--2--------2--2M-2M---------------------------------|--2--------2--2M-2M-5-----------------5-------------|--0--------0--0M-0M-5-----------------5-------------|--------------------3-----------------3-------------|
----------------------------------------------------|----------------------------------------------------|----------------------------------------------------|--7--7--7--9--9--9--10-10-10-3--3--3--3--3--3--3----|--7--7--7--9--9--9--10-10-10-3--3--3--3--3--3--3----|--5--5--5--7--7--7--8--8--8--1--1--1--1--1--1--1----|
----------------------------------------------------|----------------------------------------------------|--2--------2--2M-2M-5-----------5-------------------|--2--------2--2M-2M-5-----------5-------------------|--0--------0--0M-0M-3-----------3-------------------|----------------------------------------------------|
----------------------------------------------------|----------------------------------------------------|----------------------------------------------------|--3--------3--3M-3M-5-----------------5-------------|--3--------3--3M-3M-5-----------------5-------------|--1--------1--1M-1M-3-----------------3-------------|
----------------------------------------------------|----------------------------------------------------|--2--------2--2M-2M---------------------------------|--2--------2--2M-2M-5-----------------5-------------|--0--------0--0M-0M-5-----------------5-------------|--------------------3-----------------3-------------|
----------------------------------------------------|----------------------------------------------------|----------------------------------------------------|--7--7--7--9--9--9--10-10-10-3--3--3--3--3--3--3----|--7--7--7--9--9--9--10-10-10-3--3--3--3--3--3--3----|--5--5--5--7--7--7--8--8--8--1--1--1--1--1--1--1----|
----------------------------------------------------|--0-----0--1-----1--------0--1--0--1-----1----------|----------------------------------------------------|----------------------------------------------------|----------------------------------------------------|----------------------------------------------------|
----------------------------------------------------|--0-----0--1-----1--------0--1--0--1-----1----------|----------------------------------------------------|----------------------------------------------------|----------------------------------------------------|----------------------------------------------------|
----------------------------------------------------|--0-----0--1-----1--------0--1--0--1-----1----------|----------------------------------------------------|----------------------------------------------------|----------------------------------------------------|----------------------------------------------------|
----------------------------------------------------|--0-----0--1-----1--------0--1--0--1-----1----------|----------------------------------------------------|----------------------------------------------------|----------------------------------------------------|----------------------------------------------------|
----------------------------------------------------|--0-----0--1-----1--------0--1--0--1-----1----------|----------------------------------------------------|----------------------------------------------------|----------------------------------------------------|----------------------------------------------------|
----------------------------------------------------|--0-----0--1-----1--------0--1--0--1-----1----------|----------------------------------------------------|----------------------------------------------------|----------------------------------------------------|----------------------------------------------------|
----------------------------------------------------|--0-----0--1-----1--------0--1--0--1-----1----------|----------------------------------------------------|----------------------------------------------------|----------------------------------------------------|----------------------------------------------------|
----------------------------------------------------|--0-----0--1-----1--------0--1--0--1-----1----------|----------------------------------------------------|----------------------------------------------------|----------------------------------------------------|----------------------------------------------------|
--1--------1--------1--------1--------1-------------|-----3--------3--------3--------3--------3----------|--------2--------2--------2--------2--------2-------|----------------------------------------------------|----------------------------------------------------|----------------------------------------------------|
----------------------------|----------------------------|--2M-2M-2M-2M-2M-2M-2--2----|--2M-2M-2M-2M-2M-2M-2--2----|--0M-0M-0M-0M-0M-0M-0--0----|----------------------------|
----------------------------------------------------|----------------------------------------------------|--2--------2--2M-2M-5-----------5-------------------|--2--------2--2M-2M-5-----------5-------------------|--0--------0--0M-0M-3-----------3-------------------|----------------------------------------------------|
----------------------------------------------------|----------------------------------------------------|----------------------------------------------------|--3--------3--3M-3M-5-----------------5-------------|--3--------3--3M-3M-5-----------------5-------------|--1--------1--1M-1M-3-----------------3-------------|
----------------------------------------------------|----------------------------------------------------|--2--------2--2M-2M---------------------------------|--2--------2--2M-2M-5-----------------5-------------|--0--------0--0M-0M-5-----------------5-------------|--------------------3-----------------3-------------|
----------------------------------------------------|----------------------------------------------------|----------------------------------------------------|--7--7--7--9--9--9--10-10-10-3--3--3--3--3--3--3----|--7--7--7--9--9--9--10-10-10-3--3--3--3--3--3--3----|--5--5--5--7--7--7--8--8--8--1--1--1--1--1--1--1----|
----------------------------------------------------|----------------------------------------------------|--2--------2--2M-2M-5-----------5-------------------|--2--------2--2M-2M-5-----------5-------------------|--0--------0--0M-0M-3-----------3-------------------|----------------------------------------------------|
----------------------------------------------------|----------------------------------------------------|----------------------------------------------------|--3--------3--3M-3M-5-----------------5-------------|--3--------3--3M-3M-5-----------------5-------------|--1--------1--1M-1M-3-----------------3-------------|
----------------------------------------------------|----------------------------------------------------|--2--------2--2M-2M---------------------------------|--2--------2--2M-2M-5-----------------5-------------|--0--------0--0M-0M-5-----------------5-------------|--------------------3-----------------3-------------|
----------------------------------------------------|----------------------------------------------------|----------------------------------------------------|--7--7--7--9--9--9--10-10-10-3--3--3--3--3--3--3----|--7--7--7--9--9--9--10-10-10-3--3--3--3--3--3--3----|--5--5--5--7--7--7--8--8--8--1--1--1--1--1--1--1----|
----------------------------|----------------------------|----------------------------|----------------------------|--7--7--7--7--7--7--7--7----|----------------------------|--7--7--7--7--7--7--7--7----|--7--7--7--7--7--7--7--7----|--5--5--5--5--5--5--5--5----|--7--7--7--7--7--7--7--7----|----------------------------|--5--5--5--5--5--5--5--5----|
----------------------------|----------------------------|----------------------------|----------------------------|--5--5--5--5--5--5--5--5----|----------------------------|--5--5--5--5--5--5--5--5----|--5--5--5--5--5--5--5--5----|--3--3--3--3--3--3--3--3----|--5--5--5--5--5--5--5--5----|----------------------------|--3--3--3--3--3--3--3--3----|
----------------------------------------------------|----------------------------------------------------|--7--------7--7M-7M-7--------7--7M-7M-7--7--7M-7M---|--7--------7--7M-7M-7--------7--7M-7M-7--7--7M-7M---|--5--------5--5M-5M-5--------5--5M-5M-5--5--5M-5M---|----------------------------------------------------|
----------------------------------------------------|----------------------------------------------------|----------------------------------------------------|--5--------5--x--x--5L----------5-------------------|--5--------5--x--x--5L----------5-------------------|--3--------3--x--x--3L----------3-------------------|
----------------------------------------------------|--------------0h-1--------------------0h-1----------|-----------2--------2--------------2--------2-------|--------2-----------------------2-------------------|--0-------------------------------------------------|----------------------------------------------------|
----------------------------|----------------------------|--2M-2M-2M-2M-2M-2M-2--2----|--2M-2M-2M-2M-2M-2M-2--2----|--0M-0M-0M-0M-0M-0M-0--0----|----------------------------|
----------------------------------------------------|----------------------------------------------------|--2--------2--2M-2M-5--------5--5M-5M-5--5--5M-5M---|--2--------2--2M-2M-5--------5--5M-5M-5--5--5M-5M---|--0--------0--0M-0M-3--------3--3M-3M-3--3--3M-3M---|----------------------------------------------------|
----------------------------------------------------|----------------------------------------------------|----------------------------------------------------|--3--------3--3M-3M-5--------5--5--5M-5M-5--5M-5M---|--3--------3--3M-3M-5--------5--5--5M-5M-5--5M-5M---|--1--------1--1M-1M-3--------3--3--3M-3M-3--3M-3M---|
----------------------------------------------------|----------------------------------------------------|--2--------2--2M-2M-5--------5--5M-5M-5--5--5M-5M---|--2--------2--2M-2M-5--------5--5M-5M-5--5--5M-5M---|--0--------0--0M-0M-3--------3--3M-3M-3--3--3M-3M---|----------------------------------------------------|
----------------------------------------------------|----------------------------------------------------|----------------------------------------------------|--5--------5--5M-5M-5--------5--5--5M-5M-5--5M-5M---|--5--------5--5M-5M-5--------5--5--5M-5M-5--5M-5M---|--3--------3--3M-3M-3--------3--3--3M-3M-3--3M-3M---|
----------------------------------------------------|----------------------------------------------------|--2--------2--2M-2M-5-----------------5-------------|--2--------2--2M-2M-5-----------------5-------------|--0--------0--0M-0M-3-----------------3-------------|----------------------------------------------------|
----------------------------------------------------|----------------------------------------------------|----------------------------------------------------|--3--------3--3M-3M-5-----------------5-------------|--3--------3--3M-3M-5-----------------5-------------|--1--------1--1M-1M-3-----------------3-------------|
----------------------------------------------------|----------------------------------------------------|--2--------2--2M-2M---------------------------------|--2--------2--2M-2M-5-----------------5-------------|--0--------0--0M-0M-5-----------------5-------------|--------------------3-----------------3-------------|
----------------------------------------------------|----------------------------------------------------|----------------------------------------------------|--7--7--7--9--9--9--10-10-10-3--3--3--3--3--3--3----|--7--7--7--9--9--9--10-10-10-3--3--3--3--3--3--3----|--5--5--5--7--7--7--8--8--8--1--1--1--1--1--1--1----|
----------------------------------------------------|----------------------------------------------------|--2--------2--2M-2M-5-----------------5-------------|--2--------2--2M-2M-5-----------------5-------------|--0--------0--0M-0M-3-----------------3-------------|----------------------------------------------------|
----------------------------------------------------|----------------------------------------------------|----------------------------------------------------|--3--------3--3M-3M-5-----------------5-------------|--3--------3--3M-3M-5-----------------5-------------|--1--------1--1M-1M-3-----------------3-------------|
----------------------------------------------------|----------------------------------------------------|--2-----2-----2M------------------------------------|--2-----2-----2M----5--------5-----5-----5----------|--0-----0-----0M----5--------5-----5-----5----------|--------------------3--------3-----3-----3----------|
----------------------------------------------------|----------------------------------------------------|----------------------------------------------------|--7--7--7--9--9--9--10-10-10-3--3--3--3--3--3--3----|--7--7--7--9--9--9--10-10-10-3--3--3--3--3--3--3----|--5--5--5--7--7--7--8--8--8--1--1--1--1--1--1--1----|
----------------------------------------------------|----------------------------------------------------|--2--------2--2M-2M-5-----------------5-------------|--2--------2--2M-2M-5-----------------5-------------|--0--------0--0M-0M-3-----------------3-------------|----------------------------------------------------|
----------------------------------------------------|----------------------------------------------------|----------------------------------------------------|--7--7--7--9--9--9--10-10-10-3--3--3--3--3--3--3----|--7--7--7--9--9--9--10-10-10-3--3--3--3--3--3--3----|--5--5--5--7--7--7--8--8--8--1--1--1--1--1--1--1----|
----------------------------------------------------|----------------------------------------------------|--2-----2-----2M------------------------------------|--2-----2-----2M----5--------5-----5-----5----------|--0-----0-----0M----5--------5-----5-----5----------|--------------------3--------3-----3-----3----------|
----------------------------------------------------|----------------------------------------------------|----------------------------------------------------|--7--7--7--9--9--9--10-10-10-3--3--3--3--3--3--3----|--7--7--7--9--9--9--10-10-10-3--3--3--3--3--3--3----|--5--5--5--7--7--7--8--8--8--1--1--1--1--1--1--1----|
----------------------------------------------------|-------|----------------------------------------------------|-------|----------------------------------------------------|-------|--7--7--7--9--9--9--10-10-10-3--3--3--3--3--3--3----|--3----|--7--7--7--9--9--9--10-10-10-3--3--3--3--3--3--3----|--3----|--5--5--5--7--7--7--8--8--8--1--1--1--1--1--1--1----|--1----|
--1--------1--x-----1L----------1-------------------|--3--------3--x-----3L----------3-------------------|--2--------2--x-----2L----------2-------------------|--0--------0--x-----0L----------0-------------------|--0--------0--x-----0L----------0-------------------|----------------------------------------------------|
--3--------3--x-----3L----------3-------------------|--3--------3--x-----3L----------3-------------------|--0--------0--x-----0L----------0-------------------|--0--------0--x-----0L----------0-------------------|--2--------2--x-----2L----------2-------------------|--3--------3--x-----3L----------3-------------------|
--0--------0--x-----0L----------0-------------------|--0--------0--x-----0L----------0-------------------|--1--------1--x-----1L----------1-------------------|--2--------2--x-----2L----------2-------------------|--2--------2--x-----2L----------2-------------------|----------------------------------------------------|
--0--------0--x-----0L----------0-------------------|--1--------1--x-----1L----------1-------------------|--2--------2--x-----2L----------2-------------------|--2--------2--x-----2L----------2-------------------|--0--------0--x-----0L----------0-------------------|----------------------------------------------------|
--1--------1--x-----1L----------1-------------------|--3--------3--x-----3L----------3-------------------|--2--------2--x-----2L----------2-------------------|--0--------0--x-----0L----------0-------------------|--0--------0--x-----0L----------0-------------------|----------------------------------------------------|
--3--------3--x-----3L----------3-------------------|--0----|----||--3--------3--x-----3L----------3-------------------|--1----|----||--0--------0--x-----0L----------0-------------------|--2----|----||--0--------0--x-----0L----------0-------------------|--2----|----||--2--------2--x-----2L----------2-------------------|--0----|----||--3--------3--x-----3L----------3-------------------|-------|----||
Electric Guitar 2
E |--0----|-------|-------|--------------------3-----------------3-------------|B |--1----|--1----|--0----|--0--------0--x--x--3-----------------3-------------|G |--2----|--0----|--2----|--2--------2--x--x--0-----------------0-------------|D |--2----|--3----|--3----|--3--------3--x--x--0-----------------0-------------|A |--0----|--3----|--3----|--3--------3--x--x--2-----------------2-------------|E |-------|-------|--1----|--1--------1--x--x--3-----------------3-------------|
-------|-------|-------|--------------------3-----------------3-------------|--1----|--1----|--0----|--0--------0--x--x--3-----------------3-------------|--2----|--0----|--2----|--2--------2--x--x--0-----------------0-------------|--2----|--3----|--3----|--3--------3--x--x--0-----------------0-------------|--0----|--3----|--3----|--3--------3--x--x--2-----------------2-------------|-------|-------|--1----|--1--------1--x--x--3-----------------3-------------|
-------|-------|-------|--------------------3-----------------3-------------|--1----|--1----|--0----|--0--------0--x--x--3-----------------3-------------|--2----|--0----|--2----|--2--------2--x--x--0-----------------0-------------|--2----|--3----|--3----|--3--------3--x--x--0-----------------0-------------|--0----|--3----|--3----|--3--------3--x--x--2-----------------2-------------|-------|-------|--1----|--1--------1--x--x--3-----------------3-------------|
--1----|--3--------3--------3-----------------3-------------|--0----|--3----|--3--------3--x--x--3-----------------3-------------|--1----|--2----|--0--------0--x--x--0-----------------0-------------|--2----|--0----|--0--------0--x--x--0-----------------0-------------|--2----|-------|--2--------2--x--x--2-----------------2-------------|--0----|-------|--3--------3--x--x--3-----------------3-------------|-------|
--0--------0--------0-------------------------------|--1----|--2--------2--x--x--2-------------------------------|--3----|--2--------2--x--x--2-------------------------------|--2----|--2--------2--x--x--2-------------------------------|--0----|--0--------0--x--x--0-------------------------------|-------|----------------------------------------------------|-------|
--3--------3--------3-----------------3-------------|-------|-------|--3--------3--x--x--3-----------------3-------------|-------|-------|--0--------0--x--x--0-----------------0-------------|-------|-------|--0--------0--x--x--0-----------------0-------------|-------|-------|--2--------2--x--x--2-----------------2-------------|-------|-------|--3--------3--x--x--3-----------------3-------------|-------|-------|
----------------------------------------------------|----------------------------------------------------|--2--------2--2M-2M-5-----------5-------------------|--2--------2--2M-2M-5-----------5-------------------|--0--------0--0M-0M-3-----------3-------------------|----------------------------------------------------|
----------------------------------------------------|----------------------------------------------------|----------------------------------------------------|--3--------3--3M-3M-5-----------------5-------------|--3--------3--3M-3M-5-----------------5-------------|--1--------1--1M-1M-3-----------------3-------------|
----------------------------------------------------|----------------------------------------------------|--2--------2--2M-2M---------------------------------|--2--------2--2M-2M-5-----------------5-------------|--0--------0--0M-0M-5-----------------5-------------|--------------------3-----------------3-------------|
----------------------------------------------------|--10-10-10-12-12-12-13-13-13-6--6--6--6--6--6--6----|----------------------------------------------------|--7--7--7--9--9--9--10-10-10-3--3--3--3--3--3--3----|----------------------------------------------------|----------------------------------------------------|
----------------------------------------------------|----------------------------------------------------|--2--------2--2M-2M-5-----------5-------------------|--2--------2--2M-2M-5-----------5-------------------|--0--------0--0M-0M-3-----------3-------------------|----------------------------------------------------|
----------------------------------------------------|----------------------------------------------------|----------------------------------------------------|--3--------3--3M-3M-5-----------------5-------------|--3--------3--3M-3M-5-----------------5-------------|--1--------1--1M-1M-3-----------------3-------------|
----------------------------------------------------|----------------------------------------------------|--2--------2--2M-2M---------------------------------|--2--------2--2M-2M-5-----------------5-------------|--0--------0--0M-0M-5-----------------5-------------|--------------------3-----------------3-------------|
----------------------------------------------------|--0----|--1----|--0----|--10-10-10-12-12-12-13-13-13-6--6--6--6--6--6--6----|--1----|--1----|--1----|----------------------------------------------------|--2----|--2----|--2----|--7--7--7--9--9--9--10-10-10-3--3--3--3--3--3--3----|--2----|--3----|--2----|----------------------------------------------------|--0----|--3----|--0----|----------------------------------------------------|-------|--1----|-------|
--0--------0--------3-----------------3-------------|--0----|--1----|--0----|--1--------1--x--x--3-----------------3-------------|--1----|--1----|--1----|--0--------0--x--x--0-----------------0-------------|--2----|--2----|--2----|--2--------2--x--x--0-----------------0-------------|--2----|--3----|--2----|--3--------3--x--x--2-----------------2-------------|--0----|--3----|--0----|--------------------3-----------------3-------------|-------|--1----|-------|
--0--------0--------3-----------------3-------------|--1----|--1--------1--x--x--3-----------------3-------------|--3----|--0--------0--x--x--0-----------------0-------------|--2----|--2--------2--x--x--0-----------------0-------------|--0----|--3--------3--x--x--2-----------------2-------------|-------|--------------x--x--3-----------------3-------------|-------|
----------------------------|----------------------------|--2M-2M-2M-2M-2M-2M-2--2----|--2M-2M-2M-2M-2M-2M-2--2----|--0M-0M-0M-0M-0M-0M-0--0----|----------------------------|
----------------------------------------------------|----------------------------------------------------|--2--------2--2M-2M-5-----------5-------------------|--2--------2--2M-2M-5-----------5-------------------|--0--------0--0M-0M-3-----------3-------------------|----------------------------------------------------|
----------------------------------------------------|----------------------------------------------------|----------------------------------------------------|--3--------3--3M-3M-5-----------------5-------------|--3--------3--3M-3M-5-----------------5-------------|--1--------1--1M-1M-3-----------------3-------------|
----------------------------------------------------|----------------------------------------------------|--2--------2--2M-2M---------------------------------|--2--------2--2M-2M-5-----------------5-------------|--0--------0--0M-0M-5-----------------5-------------|--------------------3-----------------3-------------|
----------------------------------------------------|--10-10-10-12-12-12-13-13-13-6--6--6--6--6--6--6----|----------------------------------------------------|--7--7--7--9--9--9--10-10-10-3--3--3--3--3--3--3----|----------------------------------------------------|----------------------------------------------------|
----------------------------------------------------|----------------------------------------------------|--2--------2--2M-2M-5-----------5-------------------|--2--------2--2M-2M-5-----------5-------------------|--0--------0--0M-0M-3-----------3-------------------|----------------------------------------------------|
----------------------------------------------------|----------------------------------------------------|----------------------------------------------------|--3--------3--3M-3M-5-----------------5-------------|--3--------3--3M-3M-5-----------------5-------------|--1--------1--1M-1M-3-----------------3-------------|
----------------------------------------------------|----------------------------------------------------|--2--------2--2M-2M---------------------------------|--2--------2--2M-2M-5-----------------5-------------|--0--------0--0M-0M-5-----------------5-------------|--------------------3-----------------3-------------|
----------------------------------------------------|--10-10-10-12-12-12-13-13-13-6--6--6--6--6--6--6----|----------------------------------------------------|--7--7--7--9--9--9--10-10-10-3--3--3--3--3--3--3----|----------------------------------------------------|----------------------------------------------------|
----------------------------|----------------------------|----------------------------|----------------------------|--7--7--7--7--7--7--7--7----|----------------------------|--7--7--7--7--7--7--7--7----|--7--7--7--7--7--7--7--7----|--5--5--5--5--5--5--5--5----|--7--7--7--7--7--7--7--7----|----------------------------|--5--5--5--5--5--5--5--5----|
----------------------------|----------------------------|----------------------------|----------------------------|--5--5--5--5--5--5--5--5----|----------------------------|--5--5--5--5--5--5--5--5----|--5--5--5--5--5--5--5--5----|--3--3--3--3--3--3--3--3----|--5--5--5--5--5--5--5--5----|----------------------------|--3--3--3--3--3--3--3--3----|
----------------------------------------------------|----------------------------------------------------|--7--------7--7M-7M-7--------7--7M-7M-7--7--7M-7M---|--7--------7--7M-7M-7--------7--7M-7M-7--7--7M-7M---|--5--------5--5M-5M-5--------5--5M-5M-5--5--5M-5M---|----------------------------------------------------|
----------------------------------------------------|----------------------------------------------------|----------------------------------------------------|--5--------5--x--x--5L----------5-------------------|--5--------5--x--x--5L----------5-------------------|--3--------3--x--x--3L----------3-------------------|
----------------------------------------------------|----|--------------0h-1--------------------0h-1----------|----|-----------2--------2--------------2--------2-------|----|--------2-----------------------2-------------------|----|--0-------------------------------------------------|----|----------------------------------------------------|----|
----------------------------------------------------|--------------------1-------------------------------|--0h-2--2--2--2--2-----2--2--2--2-----2--2--2-------|----------------------------------------------------|----------------------------------------------------|----------------------------------------------------|
----------------------------------------------------|--------------------3-------------------------------|--0h-2--2--2--2--2-----2--2--2--2-----2--2--2-------|----------------------------------------------------|----------------------------------------------------|----------------------------------------------------|
----------------------------------------------------|--5-----------------5-----------------5-------------|--7b----------------7b----------------7b----5-------|-----------------------------------------------7----|----------------------------------------------------|----------------------------------------------------|
----------------------------------------------------|--5-------------------------------------------------|--7b----5--7--5~----------5-------------------------|--------------------7--5-----7--5-----5-------------|-----------------------------------7-----7--5-------|-----------------------------------------------5----|
----------------------------------------------------|----------------------------------------------------|--2--------2--2M-2M-5-----------------5-------------|--2--------2--2M-2M-5-----------------5-------------|--0--------0--0M-0M-3-----------------3-------------|----------------------------------------------------|
----------------------------------------------------|----------------------------------------------------|----------------------------------------------------|--3--------3--3M-3M-5-----------------5-------------|--3--------3--3M-3M-5-----------------5-------------|--1--------1--1M-1M-3-----------------3-------------|
----------------------------------------------------|----------------------------------------------------|--2--------2--2M-2M---------------------------------|--2--------2--2M-2M-5-----------------5-------------|--0--------0--0M-0M-5-----------------5-------------|--------------------3-----------------3-------------|
----------------------------------------------------|--10-10-10-12-12-12-13-13-13-6--6--6--6--6--6--6----|----------------------------------------------------|--7--7--7--9--9--9--10-10-10-3--3--3--3--3--3--3----|----------------------------------------------------|----------------------------------------------------|
----------------------------------------------------|----------------------------------------------------|--2--------2--2M-2M-5-----------------5-------------|--2--------2--2M-2M-5-----------------5-------------|--0--------0--0M-0M-3-----------------3-------------|----------------------------------------------------|
----------------------------------------------------|----------------------------------------------------|----------------------------------------------------|--3--------3--3M-3M-5-----------------5-------------|--3--------3--3M-3M-5-----------------5-------------|--1--------1--1M-1M-3-----------------3-------------|
----------------------------------------------------|----------------------------------------------------|--2-----2-----2M------------------------------------|--2-----2-----2M----5--------5-----5-----5----------|--0-----0-----0M----5--------5-----5-----5----------|--------------------3--------3-----3-----3----------|
----------------------------------------------------|--10-10-10-12-12-12-13-13-13-6--6--6--6--6--6--6----|----------------------------------------------------|--7--7--7--9--9--9--10-10-10-3--3--3--3--3--3--3----|----------------------------------------------------|----------------------------------------------------|
----------------------------------------------------|----------------------------------------------------|--2--------2--2M-2M-5-----------------5-------------|--2--------2--2M-2M-5-----------------5-------------|--0--------0--0M-0M-3-----------------3-------------|----------------------------------------------------|
----------------------------------------------------|--10-10-10-12-12-12-13-13-13-6--6--6--6--6--6--6----|----------------------------------------------------|--7--7--7--9--9--9--10-10-10-3--3--3--3--3--3--3----|----------------------------------------------------|----------------------------------------------------|
----------------------------------------------------|----------------------------------------------------|--2-----2-----2M------------------------------------|--2-----2-----2M----5--------5-----5-----5----------|--0-----0-----0M----5--------5-----5-----5----------|--------------------3--------3-----3-----3----------|
----------------------------------------------------|--10-10-10-12-12-12-13-13-13-6--6--6--6--6--6--6----|----------------------------------------------------|--7--7--7--9--9--9--10-10-10-3--3--3--3--3--3--3----|----------------------------------------------------|----------------------------------------------------|
----------------------------------------------------|-------|--10-10-10-12-12-12-13-13-13-6--6--6--6--6--6--6----|--6----|----------------------------------------------------|-------|--7--7--7--9--9--9--10-10-10-3--3--3--3--3--3--3----|--3----|----------------------------------------------------|-------|----------------------------------------------------|-------|
--1--------1--x-----1L----------1-------------------|--3--------3--x-----3L----------3-------------------|--2--------2--x-----2L----------2-------------------|--0--------0--x-----0L----------0-------------------|--0--------0--x-----0L----------0-------------------|----------------------------------------------------|
--3--------3--x-----3L----------3-------------------|--3--------3--x-----3L----------3-------------------|--0--------0--x-----0L----------0-------------------|--0--------0--x-----0L----------0-------------------|--2--------2--x-----2L----------2-------------------|--3--------3--x-----3L----------3-------------------|
--0--------0--x-----0L----------0-------------------|--0--------0--x-----0L----------0-------------------|--1--------1--x-----1L----------1-------------------|--2--------2--x-----2L----------2-------------------|--2--------2--x-----2L----------2-------------------|----------------------------------------------------|
--0--------0--x-----0L----------0-------------------|--1--------1--x-----1L----------1-------------------|--2--------2--x-----2L----------2-------------------|--2--------2--x-----2L----------2-------------------|--0--------0--x-----0L----------0-------------------|----------------------------------------------------|
--1--------1--x-----1L----------1-------------------|--3--------3--x-----3L----------3-------------------|--2--------2--x-----2L----------2-------------------|--0--------0--x-----0L----------0-------------------|--0--------0--x-----0L----------0-------------------|----------------------------------------------------|
--3--------3--x-----3L----------3-------------------|--0----|----||--3--------3--x-----3L----------3-------------------|--1----|----||--0--------0--x-----0L----------0-------------------|--2----|----||--0--------0--x-----0L----------0-------------------|--2----|----||--2--------2--x-----2L----------2-------------------|--0----|----||--3--------3--x-----3L----------3-------------------|-------|----||
Please rate this tab:
x1.0