3 Inches Of Blood - Lord Of The Storm Upon The Boiling Sea 2 tab

3 inches of blood
upon the boiling sea part 2
eadgbe

*=palm mute



tabbed by andherembrace

tab is for all of right side


0:22 ----------------------------------------------------------------|----------------------------------------------------------------|---****-**------****-**---_--------****-**------****-**---_-----|---2222-00-2----2222-00--/ \-------2222-00-2----2222-00--/ \----|-0------------0---------2-3-2----0------------0---------2-3-2---|------------------------------3-------------------------------3-|
--------------------------------------------------------------|--------------------------------------------------------------|--****-**----------------_---------****-**------****-**---_---|--5555-33-5----5555-33--/ \--------2222-00-2----2222-00--/ \--|3------------3---------2-3-2-----0------------0---------2-3-2-|-----------------------------3--------------------------------|
2 times0:32,0:42--------------------------_--------------------------------_----|---****-**------****-**--/ \--------****-**------****-**--/ \---|---9999-77-9----9999-77-4-5-4-------9999-77-9----9999-77-4-5-4--|-7------------7--------------5----7------------7--------------5-|----------------------------------------------------------------|----------------------------------------------------------------|
--------------------------------------_----------------------------_--|---*-*-*-*--*-*--------*-*-*-*--*-*--/ \-----****-**-----****-**--/ \-|--12121212-1010-12----12121212-1010-7-9-7----9999-77-9---9999-77-4-5-4|10-----------------10--------------------5-7-----------7--------------|----------------------------------------------------------------------|----------------------------------------------------------------------|
2 times0:53,0:58--------------------------------------------------------------------|--------------------------------------------------------------------|-----------***********************------------******--******-5-4-5-4|2-********-220022--220022---220022-2-********-220022--220022-3\2-3\2|0-00000000-------33------33--------0-00000000-----------------------|--------------------------------------------------------------------|
2 times1:03,1:08-------------------------------------|-------------------------------------|-----------------**----------5-4-5-4-|-2-********-**-**22-2-******-3\2-3\2-|-0-00000000-33-55---0-000000---------|-------------------------------------|
------------------------------------|------------------------------------|-----------------**-5--*****-7-5-7-5|2-********-**-**-22-3-333333-5\3-5\3|0-00000000-33-55--------------------|------------------------------------|
2 times
[3 lines]1:13,1:28---------------------------------------------------------|---------------------------------------------------------|-------------------------------------------9-------------|*-9-*-10-*-9-*-10-*-9-*-10-*-999-*12*10*12*-*12*10*101010|0---0----0---0----0---0----0-----8--8--8--8-8--8--8------|---------------------------------------------------------|
---------------------------------------------------------|---------------------------------------------------------|----------------9-----------------------------9----------|*-9-*-10-*-12-*---*-12-*-10-*-121212*12*10*12*-*12*10*999|0---0----0----0---0----0----0-------8--8--8--8-8--8--8---|---------------------------------------------------------|
-------------------------------------------------1st time only|--------------------------------------------------------------|----------------9---------------------------------------------|*-9-*-10-*-12-*---*-12-*-10-*-121212--12--10--12--9-*9-*7*6[6]|0---0----0----0---0----0----0--------*---*---*---*-10-10-8----|------------------------------------10--10--10--10------------|
1:42------------------------------------------------------------|------------------------------------------------------------|-------***-***-***-*-7-----------------------***-***-***-*-7|-2-------------------5---***-***-***-*-2-------------------5|-0-----000-000-000-0-----777-777-777-7-0-----000-000-000-0--|------------------------------------------------------------|
-----------------------------------------------------|-----------------------------------------------------|-----------------------------------------------------|-***-***-***-*-10---***-***-***-*-12----***-***-***-*|-777-777-777-7-8----888-888-888-8-10----777-777-777-7|-----------------------------------------------------|
1:57,2:01
2 times--------------------------------------------------------------------|--------------------------------------------------------------------|-----------*-*--*-*--*-*--*-*--*-*--*-*--*-*--*-*--*-*--*-*---^----*|--10--10--1212-1010-1414-1010-1515-1010-1414-1010-1212-1010-14-12-10|--------------------------------------------------------------------|--------------------------------------------------------------------|
----------------------------------------------------|------------------------****--*-*-*-*--*-*-*-*-ph---|-------*-*-*-*--*-*-*-*-9999-10101010-12121212-16---|9--9--10101010-12121212-----------------------------|----------------------------------------------------|----------------------------------------------------|
2:06-----------------------------------------------|---------------------****-****--*-*-*-*--^-----|-------****--*-*-*-*-7777-9999-10101010-9-7----|-7--7--9999-10101010------------------------10-|-----------------------------------------------|-----------------------------------------------|
-------------------------------------------------|-----------------------****--*-*-*-*--*-*-*-*----|------*-*-*-*--*-*-*-*-9999-10101010-12121212-16-|9--9-10101010-12121212---------------------------|-------------------------------------------------|-------------------------------------------------|
2:12------------------------------------------------------------|------------------------------------------------------------|------------------------------------------------------------|-2--*-4-*-5-*-7--------------5-2--*-4-*-5-*-7---------------|-0--0-2-2-3-3-5-3--*-5-*-7-*-3-0--0-2-2-3-3-5-3--*-5-*-7-*--|----------------1--1-3-3-5-5------------------1--1-3-3-5-5--|
---------------------------------------------------------------|---------------------------------------------------------p-----|---------------------------------------------------------h-----|5-2--*-4-*-5-*-7-5-*-7-*-9-*-10-9-*10-*-12--*-14--10-9---9-----|3-0--0-2-2-3-3-5-3-3-5-5-7-7--8-7-7-8-8-10-10-12-------12---12-|---------------------------------------------------------------|
2:22----------------------------------------------------------|----------------------------------------------------------|----------------------------------------------------------|-2--*-4-*-5-*-7--------------5-2--*-4-*-5-*-7-------------|-0--0-2-2-3-3-5-3--*-5-*-7-*-3-0--0-2-2-3-3-5-3--*-5-*-7-*|----------------1--1-3-3-5-5------------------1--1-3-3-5-5|
---------------------------------------------------------------|---------------------------------------------------------------|---------------------------------------------------------------|5-2--*-4-*-5-*-7-5-*-7-*-9-*-10-9-*10-*-12--*-14--10-9---9-----|3-0--0-2-2-3-3-5-3-3-5-5-7-7--8-7-7-8-8-10-10-12-------12---12-|---------------------------------------------------------------|
2:32,2:36,2:413 times 1st time only--------------------------------------------------------------------|----------^---------------^----------------^----------------^-------|--**--^--595--**---**--^-595--**-------^--252--**---**--^--252--**--|7-77-9-7----7-77-7-77-9-7---5-55-3-33-5-3----5-55-3-33-5-3----5[55]-|--------------------------------------------------------------------|--------------------------------------------------------------------|
2:46---------------------------------------------------------------|---------------------------------------------------------------|---------------------------------------------------------------|-****---^---****---^--****---^--****---^----*-*-*-*---^---ph---|-7777-10-7--7777-10-7-9999-12-9-9999-12-9--10101010-14-10-12~--|---------------------------------------------------------------|
part@ 1:13-1:28 repeats 2 times 2:51- 3:20 part@ 1:42 repeats 3:20-3:35 part@1:57 repeats 3:35-3:45 part@2:06 repeats 3:45-3:49 part@2:12 repeats 3:49-4:09 4;09
-----------------------------------------|------------------------ph---------------|-------------------2244-2----------------|-2------------2255----------------5-4----|-0--------------------------------3-2----|-----------------------------------------|
4:13,4:23-----------------------------------------------------------------------|-----------------------------------------------------------------------|-----------------------------------------------------------------------|2--*-2-*-5---*-5-*-10--*10-*-5--5-4--2--*-2-*-5--*-5-*-2--*-2-*--------|0--0-0-0-3---3-3-3-8---8-8-8-7--3-2--0--0-0-0-3--3-3-3-2--2-2-2-3-3-4-4|----------------------------------------------------------------1-1-2-2|
part@0:53 repeats 4:34
4:52------------------------------------------------|------------------------------------------------|-5----*-----------------------------------------|-3----2--------------10-9-7---12-10-9-----------|---------------------------10---------10-12\----|------------------------------------------------|
Tap to rate this tab
 
# A B C D E F G H I J K L M N O P Q R S T U V W X Y Z