3 Inches Of Blood - Quest For The Manticore tab

3 INCHES OF BLOOD
QUEST FOR THE MANTICORE
EADGBE
*=PALM MUTE

TABBED BY andherembrace

0:00B-----------------------------------------------------|-----------------------------------------------------|----------------------5------------------------------|-7-7-****************-3|-5--7-7-*********-5-5-*-5-5-*|-5-5-5555555555555555----3|-5-5-555555555-3-3-3-3-3-3|-----------------------------------------------------|
-----------------------------------------------------|-----------------------------------------------------|----------------------5------------------------------|-7-7-****************-3|-5--7-7-*********-5-5-*-5-5-*|-5-5-5555555555555555----3|-5-5-555555555-3-3-3-3-3-3|-----------------------------------------------------|
0:10L------------------------------------------------------|------------------------------------------------------|----------------------5----------------------********-|-7-7-****************-3|-5--7-7-*************33332222*|-5-5-5555555555555555----3|-5-5-5555555553333--------3|------------------------------------------------------|R
-------------------------------------------------------------------|------------------------------------------------------_-----_------|-*-*-2-*-0-*-5-*-2-*------------*-*-2-*-0-*-5---_----/ \---/ \-----|-0-0---0---0---0---0-3-*-5-*----0-0---0---0----/ \--2-3-5-2-3-5-*--|-----------------------0---0-3----------------2-3-5-------------3--|-------------------------------------------------------------------|
L------------------------------------------------------|------------------------------------------------------|----------------------5----------------------********-|-7-7-****************-3|-5--7-7-*************33332222*|-5-5-5555555555555555----3|-5-5-5555555553333--------3|------------------------------------------------------|R
-------------------------------------------------------------------|------------------------------------------------------_-----_------|-*-*-2-*-0-*-5-*-2-*------------*-*-2-*-0-*-5---_----/ \---/ \-----|-0-0---0---0---0---0-3-*-5-*----0-0---0---0----/ \--2-3-5-2-3-5-*--|-----------------------0---0-3----------------2-3-5-------------3--|-------------------------------------------------------------------|
B----------------|---------2------|---------3------|-3----**-1-**-5-|-1----11---11-3-|----------------|
0:20B------------------------------------------------------------------|------------------------------------------------------------------|------------------------------------------------------------------|-7-----*-5-----*------****3-****5--7-----*-5--*-------****3-****5-|-5-----5-3-----3-3----11111-33333--5-----5-3--3-3-----11111-33333-|-----------------1------------------------------1-----------------|
--------------------------------------------------------|--------------------------------------------------------|--------------------------------------------------------|-7-***********-5-***********---------------****3-****5--|-5-55555555555-3-33333333333-3-***********-11111-33333--|-----------------------------1-11111111111--------------|
--------------------------------------------------------|--------------------------------------------------------|--------------------------------------------------------|-7-***********-5-***********---------------****3-****5--|-5-55555555555-3-33333333333-3-***********-11111-33333--|-----------------------------1-11111111111--------------|
--------------------------------------------------------|--------------------------------------------------------|--------------------------------------------------------|-7-***********-5-***********---------------****3-****5--|-5-55555555555-3-33333333333-3-***********-11111-33333--|-----------------------------1-11111111111--------------|
--------------------------------------------------------|--------------------------------------------------------|--------------------------------------------------------|-7-***********-5-***********---------------****3-****5--|-5-55555555555-3-33333333333-3-***********-11111-33333--|-----------------------------1-11111111111--------------|
0:49----------------------------------------------------------|----------------------------------------------------------|---------------------------------------------5------------|7-**********-7-7-**********-8-8-************-7-*-8-*-7-8--|5-5555555555-5-5-5555555555-5-5-555555555555---5-5-5-5-5--|----------------------------------------------------------|
------------------------------------------------------------|------------------------------------------------------------|------------------------------------------------------------|7-7-**********-7-7-**********-5-5-**********-5-5-**********-|8-8-8888888888-8-8-8888888888-7-7-7777777777-7-7-7777777777-|------------------------------------------------------------|
------------------------------------------------------------|------------------------------------------------------------|---------------------------------------------5--------------|7-7-**********-7-7-**********-8-8-************-7-*-8-*-7-8--|5-5-5555555555-5-5-5555555555-5-5-555555555555---5-5-5-5-5--|------------------------------------------------------------|
------------------------------------------------------------|------------------------------------------------------------|------------------------------------------------------------|7-7-**********-7-7-**********-5-5-**********-5-5-**********-|8-8-8888888888-8-8-8888888888-7-7-7777777777-7-7-7777777777-|------------------------------------------------------------|
1:09-------------------------------------------------------------------|------------------------------------------------------_-----_------|-*-*-2-*-0-*-5-*-2-*------------*-*-2-*-0-*-5---_----/ \---/ \-----|-0-0---0---0---0---0-3-*-5-*----0-0---0---0----/ \--2-3-5-2-3-5----|-----------------------0---0-3----------------2-3-5-------------3--|-------------------------------------------------------------------|
-------------------------------------------------------------------|------------------------------------------------------_-----_------|-*-*-2-*-0-*-5-*-2-*------------*-*-2-*-0-*-5---_----/ \---/ \-----|-0-0---0---0---0---0-3-*-5-*----0-0---0---0----/ \--2-3-5-2-3-5----|-----------------------0---0-3----------------2-3-5-------------3--|-------------------------------------------------------------------|
-------------------------------------------------------------------|------------------------------------------------------_-----_------|-*-*-2-*-0-*-5-*-2-*------------*-*-2-*-0-*-5---_----/ \---/ \-----|-0-0---0---0---0---0-3-*-5-*----0-0---0---0----/ \--2-3-5-2-3-5----|-----------------------0---0-3----------------2-3-5-------------3--|-------------------------------------------------------------------|
-------------------------------------------------------------------|------------------------------------------------------_-----_------|-*-*-2-*-0-*-5-*-2-*------------*-*-2-*-0-*-5---_----/ \---/ \-----|-0-0---0---0---0---0-3-*-5-*----0-0---0---0----/ \--2-3-5-2-3-5----|-----------------------0---0-3----------------2-3-5-------------3--|-------------------------------------------------------------------|
1:27------------------------------------------------------|------------------------------------------------------|------------------------------------------------5-5-*-|--7-**********-8-8-**********-5-5-*-3-3-*-5-5-*-3-3-3-|--5-5555555555-5-5-5555555555-3-3-3-1-1-1-3-3-3-------|------------------------------------------------------|
------------------------------------------------------|------------------------------------------------------|------------------------------------------------5-5-*-|7-7-**********-8-8-**********-5-5-*-3-3-*-5-5-*-3-3-3-|5-5-5555555555-5-5-5555555555-3-3-3-1-1-1-3-3-3-------|------------------------------------------------------|
------------------------------------------------------|------------------------------------------------------|------------------------------------------------5-5-*-|7-7-**********-8-8-**********-5-5-*-3-3-*-5-5-*-3-3-3-|5-5-5555555555-5-5-5555555555-3-3-3-1-1-1-3-3-3-------|------------------------------------------------------|
------------------------------------------------------|------------------------------------------------------|------------------------------------------------5-5-*-|7-7-**********-8-8-**********-5-5-*-3-3-*-5-5-*-3-3-3-|5-5-5555555555-5-5-5555555555-3-3-3-1-1-1-3-3-3-------|------------------------------------------------------|
1:46-----------------------------------------------------------|-----------------------------------------------------------|-------^---^---------^---^---------^---^----------^---^----|--7---750-750---7---750-750---5---750-750---3----750-750---|*-5-*---------*-5-*---------*-3-*---------*-1-*------------|0---0---------0---0---------0---0---------0---0------------|
-----------------------------------------------------------|-----------------------------------------------------------|-------^---^---------^---^---------^---^----------^---^----|--7---750-750---7---750-750---5---750-750---3----750-750---|*-5-*---------*-5-*---------*-3-*---------*-1-*------------|0---0---------0---0---------0---0---------0---0------------|
||||||||||||||||||||||||||||||||||||||||||||||||||||||||||||||
1:55SOLO---------------------------------------------------------|---------------------------------------------------------|-^---^---^---^----^----^----^----^----^----^----^----^---|850-850-850-850-1070-1070-1070-1070-1070-1070-1070-1280--|---------------------------------------------------------|---------------------------------------------------------|
1:59-----------------------------------------------------------------------|-----------------------------------------------------------------------|--/\----/\----/\----/\----/\----/\----/\----/\----/\----/\----/\----/\-|14100-14100-14100-14100-14100-14100-14100-15120-17130-17130-17130-17130|-----------------------------------------------------------------------|-----------------------------------------------------------------------|
2:02-----------------------------------------|-----------------------------------------|--/\----/\----/\----/\----/\----/\--17-17|19150-17150-19150-19150-19150-17150------|-----------------------------------------|-----------------------------------------|
2:04---------------------------------------------------------------|---------------------------------------------------------------|------^----^----^----^----^----^----^----^----^----^----^----^-|-10-12-0-10-0-12-0-13-0-12-0-10-0-12-0-10-0-12-0-13-0-12-0-10-0|---------------------------------------------------------------|---------------------------------------------------------------|
2:07---------------------------------------------------------------|---------------------------------------------------------------|---^----^----^----^----^----^----^----^----^----^----^--/10~---|-14-0-12-0-14-0-15-0-14-0-12-0-14-0-12-0-10-0-15-0-12-0--------|---------------------------------------------------------------|---------------------------------------------------------------|
2:10 __----10------/ \-------------------------__-----------------------------|-13----13-10-13-10----10----------------/ \------__--------------------|-------------------12----12-10-12~--*-12-17-12---/ \-------------------|------------------------------------0----------12\10-12---^-------------|--------------------------------------------------------12-10-----*-----|--------------------------------------------------------------13-12-10--|
2:15------------------------------------------------------------------------|------------------------------------------------------------------------|--------------------------------^------)---(-----------^---------^------|-----------------^--------/\--10-12-12------12~~12~~-10-12-10~-10-12-10~|----*------^---12-10----10-12-------------------------------------------|10-13-10-10-13-------13-------------------------------------------------|
2:19-----------------------------------------------------|---------------------_------------__-----------------|--------_------_----/ \----__----/ \------PH--------|--_----/ \----/ \--7-8-10-/ \--8-10-12-12-10-12-10~-|-/ \--6-8-10-6-8-10------8-10-12---------------------|6-8-10-----------------------------------------------|
2:22-------__------------------------)---|------/ \---10-------13-13-13-13----|----10-12-10----10-------------------|-*----------------12-----------------|-0-----------------------------------|-------------------------------------|||||||||||||||||||||||||||||||||||||||||||||||||||||||||||||||||
RYTHM DURING SOLO-----------------------------------------------------|-----------------------------------------------------|-----------------5----4-5-4-----------------5---55---|-7-----7----5----3----2-3-2-7-----7----5----3---33---|-5---*-5--*-3--*---*--------5---*-5--*-3--*---*------|-----0----0----0---0------------0----0----0---0------|
---------------------------------|---------------------------------|------------------------------55-|-3-*************-5-**********-33-|-1-1111111111111-3-3333333333----|---------------------------------|
----------------------------------------------------|----------------------------------------------------|-----------------5-------------------------5--------|-7-----7----5----3---7-10--7-----7----5----3---7-10-|-5---*-5--*-3--*---*-5-8---5---*-5--*-3--*---*-5--8-|-----0----0----0---0-----------0----0----0---0------|
---------------------------------|---------------------------------|------------------------------55-|-3-*************-5-**********-33-|-1-1111111111111-3-3333333333----|---------------------------------|||||||||||||||||||||||||||||||||||||||||||||||||||||||||||
2:24-----------------------------------------------------------|-----------------------------------------------------------|-------^---^---------^---^---------^---^----------^---^----|--7---750-750---7---750-750---5---750-750---3----750-750---|*-5-*---------*-5-*---------*-3-*---------*-1-*------------|0---0---------0---0---------0---0---------0---0------------|
-----------------------------------------------------------|-----------------------------------------------------------|-------^---^---------^---^---------^---^----------^---^----|--7---750-750---7---750-750---5---750-750---3----750-750---|*-5-*---------*-5-*---------*-3-*---------*-1-*------------|0---0---------0---0---------0---0---------0---0------------|
2:33--------------------------------------------------|--------------------------------------------------|--------------------------------------------------|---7------5--------------7------5--****-3-****-5--|-*-5----*-3-----*-3----*-5----*-3--1111-1-3333-3--|-0------0-------0-1----0------0-------------------|
2:43-------------------------------------------------------------------|------------------------------------------------------_-----_------|-*-*-2-*-0-*-5-*-2-*------------*-*-2-*-0-*-5---_----/ \---/ \-----|-0-0---0---0---0---0-3-*-5-*----0-0---0---0----/ \--2-3-5-2-3-5----|-----------------------0---0-3----------------2-3-5-------------3--|-------------------------------------------------------------------|
-------------------------------------------------------------------|------------------------------------------------------_-----_------|-*-*-2-*-0-*-5-*-2-*------------*-*-2-*-0-*-5---_----/ \---/ \-----|-0-0---0---0---0---0-3-*-5-*----0-0---0---0----/ \--2-3-5-2-3-5----|-----------------------0---0-3----------------2-3-5-------------3--|-------------------------------------------------------------------|
-------------------------------------------------------------------|------------------------------------------------------_-----_------|-*-*-2-*-0-*-5-*-2-*------------*-*-2-*-0-*-5---_----/ \---/ \-----|-0-0---0---0---0---0-3-*-5-*----0-0---0---0----/ \--2-3-5-2-3-5----|-----------------------0---0-3----------------2-3-5-------------3--|-------------------------------------------------------------------|
-------------------------------------------------------------------|------------------------------------------------------_-----_------|-*-*-2-*-0-*-5-*-2-*------------*-*-2-*-0-*-5---_----/ \---/ \-----|-0-0---0---0---0---0-3-*-5-*----0-0---0---0----/ \--2-3-5-2-3-5----|-----------------------0---0-3----------------2-3-5-------------3--|-------------------------------------------------------------------|
3:02------------------------------------------------------|------------------------------------------------------|------------------------------------------------5-5-*-|--7-**********-8-8-**********-5-5-*-3-3-*-5-5-*-3-3-3-|--5-5555555555-5-5-5555555555-3-3-3-1-1-1-3-3-3-------|------------------------------------------------------|
------------------------------------------------------|------------------------------------------------------|------------------------------------------------5-5-*-|7-7-**********-8-8-**********-5-5-*-3-3-*-5-5-*-3-3-3-|5-5-5555555555-5-5-5555555555-3-3-3-1-1-1-3-3-3-------|------------------------------------------------------|
------------------------------------------------------|------------------------------------------------------|------------------------------------------------5-5-*-|7-7-**********-8-8-**********-5-5-*-3-3-*-5-5-*-3-3-3-|5-5-5555555555-5-5-5555555555-3-3-3-1-1-1-3-3-3-------|------------------------------------------------------|
------------------------------------------------------|------------------------------------------------------|------------------------------------------------5-5-*-|7-7-**********-8-8-**********-5-5-*-3-3-*-5-5-*-3-3-3-|5-5-5555555555-5-5-5555555555-3-3-3-1-1-1-3-3-3-------|------------------------------------------------------|
3:20L------------------------------------------------------------------|---------------------------------------------------------------_--|--------------------------------------------------------------/ \-|-3---*-2---*-3-------*-**-3---*-**-2--3---*-2---*-3-----*-**-2-3-5|---5-0---3-0---1---2-3-55---2-3-55------5-0---3-0---1-2-3-55------|------------------------------------------------------------------|
R----------------------------------------------------------------------|------------------------------------------------------------------_---|-----------------------------------------------------------------/ \--|-7---*--5---*-3-----*--*-*-7---*--*-*-5-7---*--5---*-3-----*-**-2-3-5-|---8-0----7-0---5-7-8-1010---7-8-1010-----8-0----7-0---5-2-3-55-------|----------------------------------------------------------------------|
B------------------------------------------------------------------|---------------------------------------------------------------P--|-2-************--^---^---^---^---^---^--2-************---------H--|-0-000000000000-3-0-2-0-3-0-5-0-3-0-2-0-0-000000000000-5-*-3-*-2-*|--------------------------------------------------------0---0----0|------------------------------------------------------------------|
------------------------------------------------------------------|---------------------------------------------------------------P--|-2-************--^---^---^---^---^---^--2-************---------H--|-0-000000000000-3-0-2-0-3-0-5-0-3-0-2-0-0-000000000000-5-*-3-*-2-*|--------------------------------------------------------0---0----0|------------------------------------------------------------------|
------------------------------------------------------------------|---------------------------------------------------------------P--|-2-************--^---^---^---^---^---^--2-************---------H--|-0-000000000000-3-0-2-0-3-0-5-0-3-0-2-0-0-000000000000-5-*-3-*-2-*|--------------------------------------------------------0---0----0|------------------------------------------------------------------|
------------------------------------------------------------------|---------------------------------------------------------------P--|-2-************--^---^---^---^---^---^--2-************---------H--|-0-000000000000-3-0-2-0-3-0-5-0-3-0-2-0-0-000000000000-5-*-3-*-2--|--------------------------------------------------------0---0-----|------------------------------------------------------------------|
3:48B-------------------------------------------------------------|-----------_---------_---------------------_-----------------|----------/ \-------/ \-------------------/ \----------------|-*--7--*-5------*--3------*--2---*--7--*-5------**-3-5-7-5---|-0-----0---7-0--0----5-0--0------0-----0---7-0--00-1-3-5-3---|-------------------------------------------------------------|
L-----------------------------------------------------------------------|-----------_---------_---------------------_------------------^--------|----------/ \-------/ \-------------------/ \----------^---^-235-------|-*--7--*-5------*--3------*--2---*--7--*-5------**--^-235-235----7-7-7-|-0-----0---7-0--0----5-0--0------0-----0---7-0--00-235-----------5-5-5-|-----------------------------------------------------------------------|
R-----------_---------_----------------------_--------------------------|----------/ \-------/ \------PH------------/ \----------------^--------|---7-----5---------3---------2-------7----5------------^---^-235-------|-*-----*---7-0--*----5-0--*------*------*---7-0-**--^-235-235----7-7-7-|-0-----0--------0---------0------0-----0--------00-235-----------5-5-5-|-----------------------------------------------------------------------|
Tap to rate this tab
 
# A B C D E F G H I J K L M N O P Q R S T U V W X Y Z