3 Inches Of Blood - Dark Messenger tab

3 inches of blood
dark messenger
standard tuning

tabbed by andherembrace

*=palm mute


GT1--------------------------------------------------------------------|--------------------------------------------------------------------|-4--44444---44444---44444---44444---44444---44444---44444---44444---|-4--44444---44444---44444---44444---44444---44444---44444---44444---|-2--22222---22222---22222---22222---22222---22222---22222---22222---|--------------------------------------------------------------------|
GT2 OCTAVER+1---------------------------------------------------------------|-----------------------------------------------3-----1---0-----|--------------------------------------------------2------------|---------------------------------------------------------------|---------------------------------------------------------------|---------------------------------------------------------------|
GT1-------------------------------------------------------------------|-------------------------------------------------------------------|---44444---44444---44444---44444---44444---44444---44444---44444---|---44444---44444---44444---44444---44444---44444---44444---44444---|---22222---22222---22222---22222---22222---22222---22222---22222---|-------------------------------------------------------------------|
GT2+1 OCTAVER---------------------------------------------------------------|-----------------------------------------------3-----1---------|--------------------------------------------------2------------|---------------------------------------------------------------|---------------------------------------------------------------|---------------------------------------------------------------|
0:12B-----------------------------------------------------------------|-----------------------------------------------------------------|-----------------^-----------------^-----------------------------|-4--44444--4444-4-4--44444--4444--4-4--44444--4444--4-44-4--2-5--|-2--22222--2222-5-2--22222--2222--5-2--22222--2222--5-22-5--0-3--|-----------------------------------------------------------------|
-----------------------------------------------------------------|-----------------------------------------------------------------|-----------------^-----------------^-----------------------------|-4--44444--4444-4-4--44444--4444--4-4--44444--4444--4-44-4--2-5--|-2--22222--2222-5-2--22222--2222--5-2--22222--2222--5-22-5--0-3--|-----------------------------------------------------------------|
0:23higher harmony 2 TIMES W/LOWER HARM 2WICE---------------------------------------------------------------|--------------------------^-------------------------^----------|11--1111111111-11111111-14-11-1111111111-11111111-14-11--------|-9---9-9-9-9-9--9-9-9-9--9-9---9-9-9-9-9--9-9-9-9--9-9---------|---------------------------------------------------------------|---------------------------------------------------------------|
--------------------------------------|--------------------------------------|1111111111-11111111-14-1111-14--9--12-|-9-9-9-9-9--9-9-9-9--9--9-9--9--7--10-|--------------------------------------|--------------------------------------|
0:35--------------------------------------------------------------------------|--------------------------------------------------------------------------|44--------^--4---^--2-44--------^--4-2--44--------^--4-2--5-5--555-5-5-555|22-------2-5----0-3---22-------2-5---0--22-------2-5---0--3-3--333-3-3-333|--------------------------------------------------------------------------|----000-------------------000---------------000---------------------------| *** *** ***
--------------------------------------------------------------------------|--------------------------------------------------------------------------|44--------^--4---^--2-44--------^--4-2--44-------^---4-2--5-5--555-5-5-555|22-------2-5----0-3---22-------2-5---0--22-------2-5---0--3-3--333-3-3-333|--------------------------------------------------------------------------|----000-------------------000---------------000---------------------------| *** *** ***
0:47-----------------------------------------------------------------|-----------------------------------------------------------------|-----------------^-----------------^-----------------------------|-4--44444--4444-4-4--44444--4444--4-4--44444--4444--4-44-4--2-5--|-2--22222--2222-5-2--22222--2222--5-2--22222--2222--5-22-5--0-3--|-----------------------------------------------------------------|
-----------------------------------------------------------------|-----------------------------------------------------------------|-----------------^-----------------^-----------------------------|-4--44444--4444-4-4--44444--4444--4-4--44444--4444--4-44-4--2-5--|-2--22222--2222-5-2--22222--2222--5-2--22222--2222--5-22-5--0-3--|-----------------------------------------------------------------|
-----------------------------------------------------------------|-----------------------------------------------------------------|-----------------^-----------------^-----------------------------|-4--44444--4444-4-4--44444--4444--4-4--44444--4444--4-44-4--2-5--|-2--22222--2222-5-2--22222--2222--5-2--22222--2222--5-22-5--0-3--|-----------------------------------------------------------------|
-----------------------------------------------------------------|-----------------------------------------------------------------|-----------------^-----------------^-----------------------------|-4--44444--4444-4-4--44444--4444--4-4--44444--4444--4-44-4--2-5--|-2--22222--2222-5-2--22222--2222--5-2--22222--2222--5-22-5--0-3--|-----------------------------------------------------------------|
1:11--------------------------------------------------------------------------|--------------------------------------------------------------------------|44--------^--4---^--2-44--------^--4-2--44--------^--4-2--5-5--555-5-5-555|22-------2-5----0-3---22-------2-5---0--22-------2-5---0--3-3--333-3-3-333|--------------------------------------------------------------------------|----000-------------------000---------------000---------------------------|
*** *** ***--------------------------------------------------------------------------|--------------------------------------------------------------------------|44--------^--4---^--2-44--------^--4-2--44-------^---4-2--5-5--555-5-5-555|22-------2-5----0-3---22-------2-5---0--22-------2-5---0--3-3--333-3-3-333|--------------------------------------------------------------------------|----000-------------------000---------------000---------------------------| *** *** ***
1:23-----------------------------------------------------|-----------------------------------------------------|-----------------------------------------------------|---------------8-88888-8888-7-77777-7777-------------|-7-77777-7777--6-66666-6666-5-55555-5555--3-3--8-8---|-5-55555-5555-----------------------------1-1--6-6---|
-----------------------------------------------------|-----------------------------------------------------|-----------------------------------------------------|---------------8-88888-8888-7-77777-7777-------------|-7-77777-7777--6-66666-6666-5-55555-5555--3-3--8-8---|-5-55555-5555-----------------------------1-1--6-6---|
1:34-----------------------------------------------------------------------|-----------------------------------------------------------------------|-----------------------------------------------------------------------|-2--2--------2-----------2--2--4--2--2--------2-----------2--2--4--2--2|-3--2--2-4-5---5-4-2-0-5-2--0--5--3--2--2-4-5---5-4-2-0-5-2--0--5--3--2|-----------------------------------------------------------------------| * * * * * * * * * * * * * *
----------------------------------------------------------------|----------------------------------------------------------------|----------------------------------------------------------------|--------2-----------2--2--4--2--2--------2-----------2--2--4----|--2-4-5---5-4-2-0-5-2--0--5--3--2--2-4-5---5-4-2-0-5-2--0--5----|----------------------------------------------------------------| * * * * * * * * * * * * * *
1:47-------------------------|-------------------------|-444444-2-7--444444-2-7--|-222222-0-5--222222-0-5--|-------------------------|-------------------------|
1:50L-------------------------------------------------------------|-------------------------------------------------------------|---------9--------------------------9------------------------|-9-11-12---12-11-9--9-9-9-9-9-11-12---12-11-9-11-12--7-9-11--|-------------------------------------------------------------|-------------------------------------------------------------|
R---------------------------------------------------------------------|---------------------------------------------------------------------|----------12-------------------------------12------------------------|-12-14-16---16-14-12--12-12-12-12-12-14-16---16-14-12-14-16--11-12-14|---------------------------------------------------------------------|---------------------------------------------------------------------|
1:53L-------------------------------------------------------------|-------------------------------------------------------------|---------9--------------------------9-------12-11-9-11~------|-9-11-12---12-11-9--9-9-9-9-9-11-12---12-11------------------|-------------------------------------------------------------|-------------------------------------------------------------|
R-----------------------------------------------------------------|-----------------------------------------------------------------|----------12-------------------------------12-------16-14-12-14~-|-12-14-16---16-14-12--12-12-12-12-12-14-16----16-14--------------|-----------------------------------------------------------------|-----------------------------------------------------------------|
1:56L-------------------------------------------------------------|-------------------------------------------------------------|---------9--------------------------9------------------------|-9-11-12---12-11-9--9-9-9-9-9-11-12---12-11-9-11-12--7-9-11--|-------------------------------------------------------------|-------------------------------------------------------------|
R---------------------------------------------------------------------|---------------------------------------------------------------------|----------12-------------------------------12------------------------|-12-14-16---16-14-12--12-12-12-12-12-14-16---16-14-12-14-16--11-12-14|---------------------------------------------------------------------|---------------------------------------------------------------------|
1:58L------------------------------------------------------|------------------------------------------------------|---------9------------------12-11-9-11~----9-11-------|-9-11-12---12-11-9--9-9-9-9-------------12------12~---|------------------------------------------------------|------------------------------------------------------|
R-----------------------------------------------------------------|-----------------------------------------------------------------|----------12----------------------16-14-12-16~--12-14-16-11\-----|-12-14-16---16-14-12--12-12-12-12--------------------------------|-----------------------------------------------------------------|-----------------------------------------------------------------|
MELODY REPEATS AGAIN
L-------------------------------------------------------------|-------------------------------------------------------------|---------9--------------------------9------------------------|-9-11-12---12-11-9--9-9-9-9-9-11-12---12-11-9-11-12--7-9-11--|-------------------------------------------------------------|-------------------------------------------------------------|
R---------------------------------------------------------------------|---------------------------------------------------------------------|----------12-------------------------------12------------------------|-12-14-16---16-14-12--12-12-12-12-12-14-16---16-14-12-14-16--11-12-14|---------------------------------------------------------------------|---------------------------------------------------------------------|
-------------------------------------------------------------|-------------------------------------------------------------|---------9--------------------------9-------12-11-9-11~------|-9-11-12---12-11-9--9-9-9-9-9-11-12---12-11------------------|-------------------------------------------------------------|-------------------------------------------------------------|
R-----------------------------------------------------------------|-----------------------------------------------------------------|----------12-------------------------------12-------16-14-12-14~-|-12-14-16---16-14-12--12-12-12-12-12-14-16----16-14--------------|-----------------------------------------------------------------|-----------------------------------------------------------------|
L-------------------------------------------------------------|-------------------------------------------------------------|---------9--------------------------9------------------------|-9-11-12---12-11-9--9-9-9-9-9-11-12---12-11-9-11-12--7-9-11--|-------------------------------------------------------------|-------------------------------------------------------------|
R---------------------------------------------------------------------|---------------------------------------------------------------------|----------12-------------------------------12------------------------|-12-14-16---16-14-12--12-12-12-12-12-14-16---16-14-12-14-16--11-12-14|---------------------------------------------------------------------|---------------------------------------------------------------------|
------------------------------------------------------|------------------------------------------------------|---------9------------------12-11-9-11~----9-11-------|-9-11-12---12-11-9--9-9-9-9-------------12------12~---|------------------------------------------------------|------------------------------------------------------|
R-----------------------------------------------------------------|-----------------------------------------------------------------|----------12----------------------16-14-12-16~--12-14-16-11\-----|-12-14-16---16-14-12--12-12-12-12--------------------------------|-----------------------------------------------------------------|-----------------------------------------------------------------|
2:13R SEMI PM'D-----------------------------------------|-----------------------------------------|-----------------------------------------|-----------------------------------------|-2-2222-5-4-2-0-2-4--2-2222-5-4-2-0-2-4--|-----------------------------------------|
-----------------------------------------|-----------------------------------------|-----------------------------------------|-----------------------------------------|-2-2222-5-4-2-0-2-4--2-2222-5-4-2-0-2-4--|-----------------------------------------|
2:19B-------------------------------------------------------------------|-------------------------------------------------------------------|-------------------------------------------------------------------|----------------------------------------------------------------7-7|-2-2222-5-4-2-0-2-4--2-2222-5-4-2-0-2-4--2-2222-5-4-2-0-2-4-6-6-5-5|------------------------------------------------------------4-4-5-5|
-------------------------------------------------------------------|-------------------------------------------------------------------|-------------------------------------------------------------------|----------------------------------------------------------------7-7|-2-2222-5-4-2-0-2-4--2-2222-5-4-2-0-2-4--2-2222-5-4-2-0-2-4-6-6-5-5|------------------------------------------------------------4-4-5-5|
-------------------------------------------------------------------|-------------------------------------------------------------------|-------------------------------------------------------------------|----------------------------------------------------------------7-7|-2-2222-5-4-2-0-2-4--2-2222-5-4-2-0-2-4--2-2222-5-4-2-0-2-4-6-6-5-5|------------------------------------------------------------4-4-5-5|
2:37GT1---------------------------------------------------------------------------|---------------------------------------------------------------------------|---------------------------------------------------------------------------|--------------------------------------------------7--77777-77777-77777-777-|--9-99999-99999-99999-99999-99999-99999-99999-999-5--55555-55555-55555-555-|--7-77777-77777-77777-77777-77777-77777-77777-777-5--55555-55555-55555-555-|
GT2-------------------------------------------------------------------------|-------------------------------------------------------------------------|^-----------^-------------^-----------^----------^-----------^-----------|7999999-999979-99999-99997999999-99997999999-99997999999-99997999999-9999|-------------------------------------------------------------------------|-------------------------------------------------------------------------|
GT1--------------------------------|--------------------------------|--------------------------------|--------------------------------|-7-77777-77777-777-10-10101010--|-5-55555-55555-555--8-8-8-8-8---|
GT2--------------------------------|--------------------------------|--^---------------^-------------|-7-9-99999-9999-109-99999-9999--|--------------------------------|--------------------------------|
2:50GT1---------------------------------------------------------------------------|---------------------------------------------------------------------------|---------------------------------------------------------------------------|--------------------------------------------------7--77777-77777-77777-777-|--9-99999-99999-99999-99999-99999-99999-99999-999-5--55555-55555-55555-555-|--7-77777-77777-77777-77777-77777-77777-77777-777-5--55555-55555-55555-555-|
GT2-------------------------------------------------------------------------|-------------------------------------------------------------------------|^-----------^-------------^-----------^----------^-----------^-----------|7999999-999979-99999-99997999999-99997999999-99997999999-99997999999-9999|-------------------------------------------------------------------------|-------------------------------------------------------------------------|
GT1--------------------------------|--------------------------------|--------------------------------|--------------------------------|-7-77777-77777-777-10-10101010--|-5-55555-55555-555--8-8-8-8-8---|
GT2--------------------------------|--------------------------------|--^---------------^-------------|-7-9-99999-9999-109-99999-9999--|--------------------------------|--------------------------------|
3:02GT1---------------------------------------------------------------------------|---------------------------------------------------------------------------|---------------------------------------------------------------------------|--------------------------------------------------4--44444-44444-44444-444-|--9-99999-99999-99999-99999-99999-99999-99999-999-5--55555-55555-55555-555-|--7-77777-77777-77777-77777-77777-77777-77777-777--------------------------|
GT2-------------------------------------------------------------------------|-------------------------------------------------------------------------|^-----------^-------------^-----------^----------^-----------^-----------|7999999-999979-99999-99997999999-99997999999-99997444444-44447444444-4444|-------------------------------------------------------------------------|-------------------------------------------------------------------------|
GT1---------------------------|---------------------------|---------------------------|-2-22222-2222-----7-7------|-0-00000-0000-----5-5--5-5-|------------------5-5--3-3-|
GT2---------------------------|---------------------------|--^------------------------|-10-7-77777-7777--7-7------|------------------5-5--5-5-|------------------5-5--3-3-|
3:12-----------------------------------------------------------------------|-----------------------------------------------------------------------|-----------------------------------------------------------------------|-2--2--------2-----------2--2--4--2--2--------2-----------2--2--4--2--2|-3--2--2-4-5---5-4-2-0-5-2--0--5--3--2--2-4-5---5-4-2-0-5-2--0--5--3--2|-----------------------------------------------------------------------| * * * * * * * * * * * * * *
----------------------------------------------------------------|----------------------------------------------------------------|----------------------------------------------------------------|--------2-----------2--2--4--2--2--------2-----------2--2--4----|--2-4-5---5-4-2-0-5-2--0--5--3--2--2-4-5---5-4-2-0-5-2--0--5----|----------------------------------------------------------------| * * * * * * * * * * * * * *
-----------------------------------------------------------------------|-----------------------------------------------------------------------|-----------------------------------------------------------------------|-2--2--------2-----------2--2--4--2--2--------2-----------2--2--4--2--2|-3--2--2-4-5---5-4-2-0-5-2--0--5--3--2--2-4-5---5-4-2-0-5-2--0--5--3--2|-----------------------------------------------------------------------| * * * * * * * * * * * * * *
----------------------------------------------------------------|----------------------------------------------------------------|----------------------------------------------------------------|--------2-----------2--2--4--2--2--------2-----------2--2--4----|--2-4-5---5-4-2-0-5-2--0--5--3--2--2-4-5---5-4-2-0-5-2--0--5----|----------------------------------------------------------------| * * * * * * * * * * * * * *
3:36 W/ HIGHER HARMONY-----------------------------------------------------------------|-----------------------------------------------------------------|-----------------^-----------------^-----------------------------|-4--44444--4444-4-4--44444--4444--4-4--44444--4444--4-44-4--2-5--|-2--22222--2222-5-2--22222--2222--5-2--22222--2222--5-22-5--0-3--|-----------------------------------------------------------------|
-----------------------------------------------------------------|-----------------------------------------------------------------|-----------------^-----------------^-----------------------------|-4--44444--4444-4-4--44444--4444--4-4--44444--4444--4-44-4--2-5--|-2--22222--2222-5-2--22222--2222--5-2--22222--2222--5-22-5--0-3--|-----------------------------------------------------------------|
-----------------------------------------------------------------|-----------------------------------------------------------------|-----------------^-----------------^-----------------------------|-4--44444--4444-4-4--44444--4444--4-4--44444--4444--4-44-4--2-5--|-2--22222--2222-5-2--22222--2222--5-2--22222--2222--5-22-5--0-3--|-----------------------------------------------------------------|
-----------------------------------------------------------------|-----------------------------------------------------------------|-----------------^-----------------^-----------------------------|-4--44444--4444-4-4--44444--4444--4-4--44444--4444--4-44-4--2-5--|-2--22222--2222-5-2--22222--2222--5-2--22222--2222--5-22-5--0-3--|-----------------------------------------------------------------|
3:58---------------------------------------|---------------------------------------|---------------------------------------|---------------------------------------|-999999-9-9---999999-9-9---999999-9-9--|-777777-7-7|--777777-7-7|--777777-7-7|-|
Tap to rate this tab
 
# A B C D E F G H I J K L M N O P Q R S T U V W X Y Z