311 - Uncalm tab

'Uncalm' 
Performed by 311 
>From the album "From Chaos" on Volcano Records 
Music by N. Hexum, T. Mahoney 
Lyrics by N. Hexum, D. Martinez 
© 2001 Hydroponic Music (BMI) 

Tabbed by: Cliff Burrows (cliff_burrows@hotmail.com) 


Intro (clean, cowboy sound) 

1: 
------------------------------------------------------------------------------------------ 

2: 
------------------------------------------------------------------------------------------------ 

3: 
------------------------------------------------------------------------------------------------- 

4: 
------------------------------------------------------------------------------------------------- 

5: 
---------------------------2--3--2-------2-------------------------------------2--3-------------- 

6: 
--2--4--5----5s7---0----------------0-------0-------------2--4--5----5s7---0-----------0---2----- 



Riff 1 (w/distortion, octaver) 

1: ----------------------------------------------------------------------------- 

2: ----------------------------------------------------------------------------- 

3: -----------------------6--6------------------------------------------------- 4: --7-7--7-7--7-7--7-----------7-7--7-7--7-7--7--6--6------------------ 5: -----------------------------------------------------------------------------
6: ----------------------------------------------------------------------------- Riff 2 (w/distortion, octaver)
1: ---------------------------------------------------------------------------- 2: ---------------------------------------------------------------------------- 3: ---------------------------------------------------------------------------- 4: ---------------------------------------------------------------------------- 5: --0-0--0-0--0-0--0--4--4---0-0--0-0--0-0--0------------------------- 6: -----------------------------------------------------4--4------------------
Chorus (w/distortion) 1: ----------------------------------------------------------------------------- 2: ----------------------------------------------------------------------------- 3: ----------------------------------------------------------------------------- 4: -----------------------------------------------------------------------------
5: --4--4--4--0-------(x3)---------------------------------------------------- 6: -----------------4------------4--2--4--5--4--2--4-------------------------
Lyrics/Song Structure >>>Play Intro x 3 Uncalm… >>>Play Riff 1 x4 Nick: Listen to the drummer, just listen to the strings Listen to the DJ just rappin and things Once I get a message from you, I get all edgy My minds racing, but my you know not ready uh SA: For you, baby all our dreams trickle through We are back in your teenage bedroom Both: Salvador Dali honeymoon For you Riff 2 x 4 Nick: It's like, you and me on Plymouth Rock Embarking on a journey that I never thought would happen to me so effortlessly Sparks flying, your laughter is a symphony Both: Spring, what a little moonlight can do Soon, the summer sun is on you All the while, we don't hear the news, or feel blue Chorus x7 Both: On the scales of desire, your absence weighs more than someone else's presence I wanna kiss reason goodbye today I wanna show its purple essence On your lips baby, it'll fade away, return your natural iridescence On the scales of desire, your absence weighs more than someone else's presence Riff 1 x2 Nick: You make me feel uncalm and I think I like it Make me think of a song that I could not write yet Melodies create themselves, I'm just a conduit You make my heart accelerate and I'm on to it. Riff 2 x2 Both: For you, baby there's so much that I will do, to be near the sweetness on you Funny everything seems so new, when with you Chorus x7 Both: (Repeat Chorus) Intro x2
Tap to rate this tab
 
# A B C D E F G H I J K L M N O P Q R S T U V W X Y Z