311 - Jackolanterns Weather tab

Song: Jackolantern's Weather
Artist: 311
Album: 311
Tabbed by: Eric Stainton (stainton88@hotmail.com)

++Standard Tuning++                              


--9-9-9-9---9-9-9-9---9-9---|--9-9-9-9---9-9-9-10-10-10-10-10-10--|--8-8-8-8---8-8-8-8---8-8---|--8-8-8-8---8-8-8-8--8--8--8--8--8---|--7-7-7-7---7-7-7-7---7-7---|--7-7-7-7---7-7-7-7--7--7--7--7--7---|----------------------------|-------------------------------------|----------------------------|-------------------------------------|----------------------------|-------------------------------------|
|------------------------------|-----------------------------||------------------------------|-----------------------------||------------------------------|-----------------------------||------------------------------|-----------------------------||--------------5--3---3--3-2-0-|-------------5--3---3--3-2-0-||----3-5-3-5-3-----------------|---3-5-3-5-3-----------------|
-----------------------------|-----------------------------|-----------------------------|-----------------------------|-----------------------------|-----------------------------|-----------------------------|-----------------------------|-------------5--3---3--3-2-0-|-------------5--3---3--3-2-0-|---3-5-3-5-3-----------------|---3-5-3-5-3-----------------|------------------------------|------------------------------|------------------------------|------------------------------|------------------------------|------------------------------|------------------------------|------------------------------|--5-0-5-7--7-5---0-5-7--7-5-0-|--5-0-5-7--7-5---0-5-7--7-5-0-|------------------------------|------------------------------|
------------------------------|------------------------------||------------------------------|------------------------------||------------------------------|------------------------------||------------------------------|------------------------------||--5-0-5-7--7-5---0-5-7--7-5-0-|--5-0-5-7--7-5---0-5-7--7-5---||------------------------------|------------------------------||
------------------------------|----------------------------|------------------------------|----------------------------|------------------------------|----------------------------|------------------------------|----------------------------|-----------------4-4---4------|-----------------4-4---4~---|--4-4-4-5--6--7------7---7-4--|--4-4-4-5--6--7------7------|
------------------------------|----------------------------|------------------------------|----------------------------|------------------------------|----------------------------|------------------------------|----------------------------|-----------------4-4---4------|----------------------------|--4-4-4-5--6--7------7---7-4--|--4-4-4-5--6--7--0--0--0--0-|
------------------------------|----------------------------|------------------------------|----------------------------|------------------------------|----------------------------|------------------------------|----------------------------|-----------------4-4---4------|-----------------4-4---4----|--4-4-4-5--6--7------7---7-4--|--4-4-4-5--6--7------7------|
------------------------------|---------------------------|------------------------------|---------------------------|------------------------------|---------------------------|------------------------------|---------------------------|-----------------4-4---4------|---------------------------|--4-4-4-5--6--7------7---7-4--|--4-4-4-5--6--7--0--0--0---|
=
|-----------------------------|----------------------------||-----------------------------|----------------------------||-----------------------------|----------------------------||-----------------------------|----------------------------||-----------------------------|----------------------------||---5--5----5-5-3-2-3--3-2-3--|--5--5----5-5-3-2-3--3-2-3--|
----------------------------|----------------------------||----------------------------|----------------------------||----------------------------|----------------------------||----------------------------|-----------------2------4---||----------------------------|---------------3------5-----||--5--5----5-5-3-2-3--3-2-3--|--5--5----5--3------5-------|| ---------------------------|---------------------------||---------------------------|---------------------------||---------------------------|---------------------------||---------------------------|---------------------------||---4--------4--------4-----|--4--------4--------4--5---||------2--2-----2--2-----2--|-----2--2-----2--2---------||
--------------------------|--------------------------||--------------------------|--------------------------||--------------------------|--------------------------||--------------------------|--------------------------||--4--------4--------4-----|--4--------4--------4--2--||-----2--2-----2--2-----2--|-----2--2-----2--2-----3--||
Tap to rate this tab
 
# A B C D E F G H I J K L M N O P Q R S T U V W X Y Z