36 Crazyfists - Waiting On A War tab

TUNING: DROP C

KEY:
. Palm Mute
~ Let Ring
* Pinch Harmonic

INTRO|-------------------------------------------------||-------------------------------------------------||-------------------------------------------------||-----6---6-------6---6-------6---6-------6---6---||---4---4---4---4---4---4---4---4---4---4---4---4-||-4-----------4-----------4-----------4-----------| ~~~~~~~~~~~~~~~~~~~~~~~~~~~~~~~~~~~~~~~~~~~~~~~
|-------------------------------------------------||-------------------------------------------------||-----------------------------4---4---------------||-----7---7-------4---4-------------------2---2---||---0---0---0---0---0---0---0---0---0---0---0---0-||-0-----------0-----------0-----------0-----------| ~~~~~~~~~~~~~~~~~~~~~~~~~~~~~~~~~~~~~~~~~~~~~~~
|-------------------------------------------------||-------------------------------------------------||-------------------------------------------------||-----6---6-------6---6-------6---6-------6---6---||---4---4---4---4---4---4---4---4---4---4---4---4-||-4-----------4-----------4-----------4-----------| ~~~~~~~~~~~~~~~~~~~~~~~~~~~~~~~~~~~~~~~~~~~~~~~
|-------------------------------------------------||-------------------------------------------------||-----4-------------------------------------------||-----------6-----7-----4-----6-----2-----4-----6-||---0---0-----0-----0-----0-----0-----0-----0-----||-0-------0-----0-----0-----0-----0-----0-----0---| ~~~~~~~~~~~~~~~~~~~~~~~~~~~~~~~~~~~~~~~~~~~~~~~
|-------------------------------------------------||-------------------------------------------------||-------------------------------------------------||-----6---6-------6---6-------6---6-------6---6---||---4---4---4---4---4---4---4---4---4---4---4---4-||-4-----------4-----------4-----------4-----------| ~~~~~~~~~~~~~~~~~~~~~~~~~~~~~~~~~~~~~~~~~~~~~~~
|-------------------------------------------------||-------------------------------------------------||-----------------------------4---4---------------||-----7---7-------4---4-------------------2---2---||---0---0---0---0---0---0---0---0---0---0---0---0-||-0-----------0-----------0-----------0-----------| ~~~~~~~~~~~~~~~~~~~~~~~~~~~~~~~~~~~~~~~~~~~~~~~
|-------------------------------------------------||-------------------------------------------------||-------------------------------------------------||-----6---6-------6---6-------6---6-------6---6---||---4---4---4---4---4---4---4---4---4---4---4---4-||-4-----------4-----------4-----------4-----------| ~~~~~~~~~~~~~~~~~~~~~~~~~~~~~~~~~~~~~~~~~~~~~~~
|-------------------------------------------------||-------------------------------------------------||-----4-------------------------------------------||-----------6-----7-----4-----6-----2-----4-----4-||---0---0-----0-----0-----0-----0-----0-----0---0-||-0-------0-----0-----0-----0-----0-----0-----0---| ~~~~~~~~~~~~~~~~~~~~~~~~~~~~~~~~~~~~~~~~~~~~~~~
|---------------------------------------------------------------||---------------------------------------------------------------||-------------------9-9-9-6-6-6-6-------------------4-4-4-6-6-6-||-4-4-4-7-7-7-6-6-6---------------4-4-4-7-7-7-6-6-6-------------||-4-4-4---------------------------4-4-4-------------------------||-4-4-4---------------------------4-4-4-------------------------|
|---------------------------------------------------------------||---------------------------------------------------------------||-------6-6-6-4-4-4---------------4-4-4-6-6-6-*4----------------||-0--0--------------6-6-6-7-7-7-7-4-4-4-----------2-2-2-4-4-4-6-||-0--0----------------------------2-2-2-----------2-2-2---------||-0--0--------------------------------------------2-2-2---------|
|---------------------------------------------------------------||---------------------------------------------------------------||--------------------9-9-9-6-6-6--------------------4-4-4-6-6-6-||-4--4-4-7-7-7-6-6-6-------------4--4-4-7-7-7-6-6-6-------------||-4--4-4-------------------------4--4-4-------------------------||-4--4-4-------------------------4--4-4-------------------------|
|---------------------------------------------------------------||---------------------------------------------------------------||--------6-6-6-4-4-4-------------4--4-4-6-6-6-4-----------------||-0--0-0-------------6-6-6-7-7-7-4--4-4---------2---------------||-0--0-0-------------------------2--2-2---------2----2-2--------||-0--0-0----------------------------------------2----2-2--------| . .
VERSE X4|---------------------------------------------------------------||---------------------------------------------------------------||---------------------------------------------------------------||---------------------------------------------------------------||-2--4---------------------------2--4---------------------------||-2--4-0-7-6-0-6-4-2-7-6-0-4-6-7-2--4-0-7-6-0-6-4-2-7-6-0-6-4-2-|
PRE-CHORUS|----------------------------------------------------------------||----------------------------------------------------------------||-6--6-6----6--6-6----6-----6--6-6----6--6-6----6-6-6-6-6-6-6----||-X--X-X----X--X-X----X-----X--X-X----X--X-X----X-X-X-X-X-X-X----||-4--4-4-0--4--4-4-0--4-0-0-4--4-4-0--4--4-4-0--4-4-4-4-4-4-4----||-0--0-0-0--0--0-0-0--0-0-0-0--0-0-0--0--0-0-0--0-0-0-0-0-0-0----| . . ... . .
|-------------------------------------||-------------------------------------||-6----6-6--------------------------1-||-X----X-X--2-2-2-2--2-2-2-2----2-4---||-4--0-4-4--2-2-2-2--2-2-2-2----------||----0------2-2-2-2--2-2-2-2--2-------| . .
CHORUS|---------------------------------------------------------------||---------------------------------------------------------------||--------------------9-9-9-6-6-6--------------------4-4-4-6-6-6-||-4--4-4-7-7-7-6-6-6-------------4--4-4-7-7-7-6-6-6-------------||-4--4-4-------------------------4--4-4-------------------------||-4--4-4-------------------------4--4-4-------------------------|
|-------------------------------------------------------------||-------------------------------------------------------------||--------6-6-6-4-4-4-------------4--4-4-6-6-6-4---------------||-0--0-0-------------6-6-6-7-7-7-4--4-4---------2-2-2-2-2--7--||-0--0-0-------------------------2--2-2---------2-2-2-2-2--7--||-0--0-0----------------------------------------2-2-2-2-2--7--|
|--------------------------------------------------------------||--------------------------------------------------------------||-------------------9-9-9-6-6-6--------------------4-4-4-6-6-6-||-4--4--7-7-7-6-6-6-------------4--4-4-7-7-7-6-6-6-------------||-4--4--------------------------4--4-4-------------------------||-4--4--------------------------4--4-4-------------------------|
|-------------------------------------------------------------------||-------------------------------------------------------------------||--------6-6-6-4-4-4-------------4--4-4-6-6-6-4------------------4--||-0--0-0-------------6-6-6-7-7-7-4--4-4---------2-2-2-2-2--7--0--X--||-0--0-0-------------------------2--2-2---------2-2-2-2-2--7--0--2--||-0--0-0----------------------------------------2-2-2-2-2--7--0-----|
FILL|---------------------------------------------------------------||---------------------------------------------------------------||---------------------------------------------------------------||---------------------------------------------------------------||-2--4---------------------------2--4-------------------2--2----||-2--4-0-7-6-0-6-4-2-7-6-0-4-6-7-2--4-0-7-6-0-6-4-2-7-6-2--2----| ....
VERSE X4|---------------------------------------------------------------||---------------------------------------------------------------||---------------------------------------------------------------||---------------------------------------------------------------||-2--4---------------------------2--4---------------------------||-2--4-0-7-6-0-6-4-2-7-6-0-4-6-7-2--4-0-7-6-0-6-4-2-7-6-0-6-4-2-|
PRE-CHORUS|----------------------------------------------------------------||----------------------------------------------------------------||-6--6-6----6--6-6----6-----6--6-6----6--6-6----6-6-6-6-6-6-6----||-X--X-X----X--X-X----X-----X--X-X----X--X-X----X-X-X-X-X-X-X----||-4--4-4-0--4--4-4-0--4-0-0-4--4-4-0--4--4-4-0--4-4-4-4-4-4-4----||-0--0-0-0--0--0-0-0--0-0-0-0--0-0-0--0--0-0-0--0-0-0-0-0-0-0----| . . ... . .
|-------------------------------------||-------------------------------------||-6----6-6--------------------------1-||-X----X-X--2-2-2-2--2-2-2-2----2-4---||-4--0-4-4--2-2-2-2--2-2-2-2----------||----0------2-2-2-2--2-2-2-2--2-------| . .
CHORUS|---------------------------------------------------------------||---------------------------------------------------------------||--------------------9-9-9-6-6-6--------------------4-4-4-6-6-6-||-4--4-4-7-7-7-6-6-6-------------4--4-4-7-7-7-6-6-6-------------||-4--4-4-------------------------4--4-4-------------------------||-4--4-4-------------------------4--4-4-------------------------|
|-------------------------------------------------------------||-------------------------------------------------------------||--------6-6-6-4-4-4-------------4--4-4-6-6-6-4---------------||-0--0-0-------------6-6-6-7-7-7-4--4-4---------2-2-2-2-2--7--||-0--0-0-------------------------2--2-2---------2-2-2-2-2--7--||-0--0-0----------------------------------------2-2-2-2-2--7--|
|--------------------------------------------------------------||--------------------------------------------------------------||-------------------9-9-9-6-6-6--------------------4-4-4-6-6-6-||-4--4--7-7-7-6-6-6-------------4--4-4-7-7-7-6-6-6-------------||-4--4--------------------------4--4-4-------------------------||-4--4--------------------------4--4-4-------------------------|
|-------------------------------------------------------------||-------------------------------------------------------------||--------6-6-6-4-4-4-------------4--4-4-6-6-6-4---------------||-0--0-0-------------6-6-6-7-7-7-4--4-4---------2-2-2-2-2--7--||-0--0-0-------------------------2--2-2---------2-2-2-2-2--7--||-0--0-0----------------------------------------2-2-2-2-2--7--|
BRIDGE|----------------------------------------------||----------------------------------------------||-------11----------9----------6----------4----||----7-----------6----------4----------2-------||-9-----------7----------5----------2----------||----------------------------------------------| ~~~~~~~~~~~~~~~~~~~~~~~~~~~~~~~~~~~~~~~~~~~~
|----------------------------------------------||----------------------------------------------||-------11----------9----------6----4----------||----7-----------6----------4-------2----------||-9-----------7----------5----------2----------||----------------------------------------------| ~~~~~~~~~~~~~~~~~~~~~~~~~~~~~~~~~~~~~~~~~~~~
BREAKDOWN|-----------------------------------------------||-----------------------------------------------||-----------------------------------------------||-----------------------------------------------||-4-4-4--444----444--444-4-4-4--444----444--444-||-4-4-4--444----444--444-4-4-4--444----444--444-| ..... ... ... ......... ... ... ...
|-----------------------------------------------||-----------------------------------------------||-----------------------------------------------||-----------------------------------------------||-0-0-0--000----000--000-0-0-0--000----000--000-||-0-0-0--000----000--000-0-0-0--000----000--000-| ..... ... ... ......... ... ... ...
|-----------------------------------------------||-----------------------------------------------||-----------------------------------------------||-----------------------------------------------||-4-4-4--444----444--444-4-4-4--444----444--444-||-4-4-4--444----444--444-4-4-4--444----444--444-| .............................................
|------------------------------------------------||------------------------------------------------||------------------------------------------------||------------------------------------2-2-2-2--7--||-0-0-0--000----000--000-0-0-0--000--2-2-2-2--7--||-0-0-0--000----000--000-0-0-0--000--2-2-2-2--7--| .................................
CHORUS|----------------------------------------------------------------||----------------------------------------------------------------||--------------------9-9-9-6-6-6-6-------------------4-4-4-6-6-6-||-4--4-4-7-7-7-6-6-6---------------4-4-4-7-7-7-6-6-6-------------||-4--4-4---------------------------4-4-4-------------------------||-4--4-4---------------------------4-4-4-------------------------|
|--------------------------------------------------------------||--------------------------------------------------------------||--------6-6-6-4-4-4-------------4--4-4-6-6-6-*4---------------||-0--0-0-------------6-6-6-7-7-7-4--4-4----------2-2-2-2-2--7--||-0--0-0-------------------------2--2-2----------2-2-2-2-2--7--||-0--0-0-----------------------------------------2-2-2-2-2--7--|
|---------------------------------------------------------------||---------------------------------------------------------------||--------------------9-9-9-6-6-6--------------------4-4-4-6-6-6-||-4--4-4-7-7-7-6-6-6-------------4--4-4-7-7-7-6-6-6-------------||-4--4-4-------------------------4--4-4-------------------------||-4--4-4-------------------------4--4-4-------------------------|
|-------------------------------------------------------------||-------------------------------------------------------------||--------6-6-6-4-4-4-------------4--4-4-6-6-6-4---------------||-0--0-0-------------6-6-6-7-7-7-4--4-4---------2-2-2-2-2--7--||-0--0-0-------------------------2--2-2---------2-2-2-2-2--7--||-0--0-0----------------------------------------2-2-2-2-2--7--|
|--------------------------------------------------------------||--------------------------------------------------------------||-------------------9-9-9-6-6-6--------------------4-4-4-6-6-6-||-4--4--7-7-7-6-6-6-------------4--4-4-7-7-7-6-6-6-------------||-4--4--------------------------4--4-4-------------------------||-4--4--------------------------4--4-4-------------------------|
|-------------------------------------------------------------||-------------------------------------------------------------||--------6-6-6-4-4-4-------------4--4-4-6-6-6-4---------------||-0--0-0-------------6-6-6-7-7-7-4--4-4---------2-2-2-2-2--7--||-0--0-0-------------------------2--2-2---------2-2-2-2-2--7--||-0--0-0----------------------------------------2-2-2-2-2--7--|
EXIT|------||------||------||-4--4-||-4--4-||-4--4-|
Tap to rate this tab
 
# A B C D E F G H I J K L M N O P Q R S T U V W X Y Z