3oh3 - My First Kiss tab version 2

                      Artist:3Oh!3
                      Song:My First Kiss
                      Tuned to: Drop C [CGCFAD]
                      Tabbed by:ajm321
                      Email:socioteband123@hotmail.com<------------------| 
                                                                         |  
  I tabbed this out by ear and I'm 99.9% positive it's correct. My email-|
  is right here so drop me a line or a couple if you disagree. :D

Verse [0:11]|-------| |-------||-------||----3--||----3--||----3--|
[0:18]|-------||-------||-------||----3--||----3--||----3--|
[0:21]|-------||-------||-------||----3--||----3--||----3--|
[0:25]|-------||-------||-------||----3--||----3--||----3--|
[0:28]|-------||-------||-------||----3--||----3--||----3--|
Pre-Chorus[0:32]|-----------------||-----------------||-----------------||----3---2---7---9||----3---2---7---9||----3---2---7---9|
|-----------------||-----------------||-----------------||----3---2---7----||----3---2---7----||----3---2---7----|
Chorus[0:45]|------------------------|-|------------------------|--|------------------------|---> 4x|----33337777121212129999|--->|----33337777121212129999|--|----33337777121212129999|-
[1:17]|-------||-------||-------||----3--||----3--||----3--|
[1:20]|-------||-------||-------||----3--||----3--||----3--|
[1:24]|-------||-------||-------||----3--||----3--||----3--|
[1:27]|-------||-------||-------||----3--||----3--||----3--|
Pre-Chorus[1:31]|-------------------|-|-------------------|--|-------------------|---> 2x|----3---2---7---9--|--->|----3---2---7---9--|--|----3---2---7---9--|-
Chrous[1:44 or 45]|------------------------|-|------------------------|--|------------------------|---> 4x|----33337777121212129999|--->|----33337777121212129999|--|----33337777121212129999|-
Bridge/Verse* Sounds like the verses [2:12] [2:19 or 20] [2:26] [2:33]
Chorus[2:40]|------------------------|-|------------------------|--|------------------------|---> 4x|----33337777121212129999|--->|----33337777121212129999|--|----33337777121212129999|-
End[3:15]|-------||-------||-------||----3--||----3--||----3--|
*You guys decide If it was me and when I cover it I'd make it into a breakdown. I love Breakdowns!:-D
Tap to rate this tab
 
# A B C D E F G H I J K L M N O P Q R S T U V W X Y Z