50 Lions - Wrong Choices tab

Song: Wrong Choices
Band: 50 Lions
Album: Where Life Expires

Drop D:     D A D G B e


Part 1:

-----------------------------------|-----------------------------------|-----------------------------------|------6-5-6-5-----6-5-6-5-3-3-5-5--|--0-0-6-5-6-5-0-0-6-5-6-5-3-3-5-5--|--0-0-6-5-6-5-0-0-6-5-6-5-3-3-5-5--| . . . .
-----------------------------------|-----------------------------------|-----------------------------------|------6-5-6-5-----6-5-6-5-------0--|--0-0-6-5-6-5-0-0-6-5-6-5-------0--|--0-0-6-5-6-5-0-0-6-5-6-5-6-5-3-0--| . . . . . . .
-----------------------------------|-----------------------------------|-----------------------------------|------6-5-6-5-----6-5-6-5-3-3-5-5--|--0-0-6-5-6-5-0-0-6-5-6-5-3-3-5-5--|--0-0-6-5-6-5-0-0-6-5-6-5-3-3-5-5--| . . . .
-----------------------------------|-----------------------------------|-----------------------------------|------6-5-6-5----------------------|--0-0-6-5-6-5-0-0-0-0-0-0-6---3----|--0-0-6-5-6-5-0-0-0-0-0-0-6---3----| . . . . . . . .
Part 2:
---------------------------|---------------------------|---------------------------|--0---------5-----8---6----|--0---------5-----8---6----|--0---------5-----8---6----|
Part 3:
-------------------------------|-------------------------------|-------------------------------|--0-------------3-5---6---5----|--0-0-0-0-0-0-0-3-5-0-6-0-5-0--|--0-0-0-0-0-0-0-3-5-0-6-0-5-0--| . . . . . . . . .
---------------------------------|---------------------------------|---------------------------------|--0-------------3-5---6-5---5-6--|--0-0-0-0-0-0-0-3-5-0-6-5-0-5-6--|--0-0-0-0-0-0-0-3-5-0-6-5-0-5-6--| . . . . . . . .
Part 4:
-----------------------------------|-----------------------------------|-----------------------------------|--2---2-------2------5---5------5--|--2-0-2-------2------5-0-5------5--|--2-0-2-------2------5-0-5------5--| . . . .
-----------------------------------|-----------------------------------|-----------------------------------|----5-------5-------5-------6---5--|--0-5-----0-5-----0-5-----0-6---5--|--0-5-----0-5-----0-5-----0-6---5--| . . . .
Back to Part 1. Please comment/rate and check out my other tabs and rate/comment them too
Tap to rate this tab
 
# A B C D E F G H I J K L M N O P Q R S T U V W X Y Z