7 Seconds - Were Gonna Fight tab version 2

7 Seconds - We're gonna fight



Bass Intro


verse

e--------------------------------------------------x3H--------------------------------------------------G--------------------------------------------10----D77777777------------------77777777-10101010-10-10-A77777777-1010101010101010-77777777-10101010-8--10-E55555555-8-8-8-8-8-8-8-8--55555555-8-8-8-8-----8--p.m..........................................
e--------------------------------------------------x3H--------------------------------------------------G--------------------------------------------10----D77777777------------------77777777-10101010-10-10-A77777777-1010101010101010-77777777-10101010-8--10-E55555555-8-8-8-8-8-8-8-8--55555555-8-8-8-8-----8--
Refrain
--------------------------------------------------------------------------------------------------------55555555----------1010101010101010------------------55555555-55555555-1010101010101010-1010101010101010-77777777-55555555-8-8-8-8-8-8-8-8--1010101010101010----------77777777------------------8-8-8-8-8-8-8-8--
------------------------------------------------------------------------------------------77777777----------1010101010101010-77777777--77777777-77777777-1010101010101010-77777777--55555555-77777777-8-8-8-8-8-8-8-8--55555555-----------55555555----------------------------
verse
e--------------------------------------------------x3H--------------------------------------------------G--------------------------------------------10----D77777777-1010101010101010-77777777-10101010-10-10-A77777777-1010101010101010-77777777-10101010-8--10-E55555555-8-8-8-8-8-8-8-8--55555555-8-8-8-8-----8--p.m..........................................
e--------------------------------------------------x3H--------------------------------------------------G--------------------------------------------10----D77777777-1010101010101010-77777777-10101010-10-10-A77777777-1010101010101010-77777777-10101010-8--10-E55555555-8-8-8-8-8-8-8-8--55555555-8-8-8-8-----8--
Refrain
--------------------------------------------------------------------------------------------------------55555555----------1010101010101010------------------55555555-55555555-1010101010101010-1010101010101010-77777777-55555555-8-8-8-8-8-8-8-8--1010101010101010----------77777777------------------8-8-8-8-8-8-8-8--
------------------------------------------------------------------------------------------77777777----------1010101010101010-77777777--77777777-77777777-1010101010101010-77777777--55555555-77777777-8-8-8-8-8-8-8-8--55555555-----------55555555----------------------------
Bridge
e----------------------------------------------------x4H----------------------------------------------------G----------------------------------------------------D77777777-1010101010101010-77777777-1010101010101010-A77777777-1010101010101010-77777777-1010101010101010-E55555555-8-8-8-8-8-8-8-8--55555555-8-8-8-8-8-8-8-8--p.m...................................................
Refrain x2
--------------------------------------------------------------------------------------------------------55555555----------1010101010101010------------------55555555-55555555-1010101010101010-1010101010101010-77777777-55555555-8-8-8-8-8-8-8-8--1010101010101010----------77777777------------------8-8-8-8-8-8-8-8--
------------------------------------------------------------------------------------------77777777----------1010101010101010-77777777--77777777-77777777-1010101010101010-77777777--55555555-77777777-8-8-8-8-8-8-8-8--55555555-----------55555555----------------------------
outro
----------------------------------------------------x2------------------------------------------------------------------------------1010101010101010-77777777-77777777-1010101010101010-1010101010101010-77777777-77777777-1010101010101010-8-8-8-8-8-8-8-8--55555555-55555555-8-8-8-8-8-8-8-8----------------------------.....................................................
----------------------------------------------------x4------------------------------------------------------------------------------1010101010101010-77777777-77777777-1010101010101010-1010101010101010-77777777-77777777-1010101010101010-8-8-8-8-8-8-8-8--55555555-55555555-8-8-8-8-8-8-8-8----------------------------
Tap to rate this tab
 
# A B C D E F G H I J K L M N O P Q R S T U V W X Y Z