8 Foot Sativa – Season For Assault tab

season for assault intro

Tuning B F# B E G# C# (low to high)

Gtr I  - 'Gary Smith'

PART A x2------------------------------------------------------------------------------|------------------------------------------------------------------------------|--------------10--------9-----------------------------------------------------|---------7--------7---------7----5-h-7----------------------------------------|------5----5---------5--------5-----------------------------------------------|----0-------------------------------------------------------------------------|
all ringin together 1 chord no jumpin . Not to bad a stretch. Good for little finger then
PART B x1------------------------------------------------------------------------------|------------------------------------------------------------------------------|---------------7---------7------------7---------------------------------------|-------------8---------8------------------------------------------------------|------------------------------------------------------------------------------|----------8---------8--------------8------------------------------------------|
------------------------------------------------------------------------------|------------------------------------------------------------------------------|--------------9-----------9------------9--------------------------------------|-----------10----------10-----------------------------------------------------|------------------------------------------------------------------------------|--------10----------10-------------10-----------------------------------------|
Then do PART A again x2 !!! Then PART C which is
------------------------------------------------------------------------------|------------------------------------------------------------------------------|--------------7------------7--------7-----------------------------------------|-----------8-------------8----------------------------------------------------|------------------------------------------------------------------------------|-------8--------------8----------8--------------------------------------------|
------------------------------------------------------------------------------|------------------------------------------------------------------------------|------------0----------------0------------------------------------------------|---------6-----------------1--------1-----------------------------------------|------------------------------------------------------------------------------|------6-----------------1---------1-------------------------------------------|
----------------------------------------------------------------------|----------------------------------------------------------------------|----0-h-3-p-0---------6-------------------------------------5---------|----0-h-3-p-0---------6--------5----8------7-h-8-p-7--3---------------|----0-h-3-p-0--0--0--6--0--0----8----8-8------------------------------|. . . . . . .
---------------------------------------------------------------------|---------------------------------------------------------------------|----0-h-3-p-0---------6----------------------------------------------|----0-h-3-p-0---------6--------5----8------7-h-8-p-7------3----------|----0-h-3-p-0--0--0--6--0--0----8----8-8-----------------------------|
. . . . . . .Play 3 times on 4th finish with this...-----------------------------------------------------------|-----------------------------------------------------------|----0-h-3-p-0---------6------------------------------------|----0-h-3-p-0---------6--------5----8--------3-------------|----0-h-3-p-0--0--0--6--0--0----8----8-8-------------------|. . . . . . .
-----------------------------------------------------|-----------------------------------------------------|-----------------------------------------------------|-----------------------------------------7-----------|----------4-5----4-7---5-8----7-10-8-----------------|--0-0-0-------0------0------0------------------------|
. . . . . .-----------------------------------------------------|-----------------------------------------------------|-----------------------------------------------------|-----------------------------------------------------|---------4-5----4-7----5-8----7-10---7---------------|--0-0-0------0------0-------0-------8----------------|. . . . . .
-----------------------------------------------------|-----------------------------------------------------|-----------------------------------------------------|-----------------------------------------7-----------|----------4-5----4-7---5-8----7-10-8-----------------|--0-0-0-------0------0------0------------------------|. . . . . .
-----------------------------------------------------------|-----------------------------------------------------------|-----------------------------------------------------------|-----------------------------------------------------------|----------4-5----4-7----5-8----7-10-8-7-7-10-8-7-----------|--0-0-0-------0------0-------0-----------------------------|. . . . . .Play through twice
------------------------------------------------------|------------------------------------------------------|------------------------------------------------------|------------------------------------------------------|---5s------------------------------8-5s---------------|-------0-0-0-0-0--5-6-0-3-6-7-------------------------|
. . . . . .------------------------------------------------------|------------------------------------------------------|------------------------------------------------------|-------------------------6-5-3------------------------|--------------------------------5---------------------|--0-0-0-0-0--5-6-0-3----------------------------------|
. . . . . .-----------------------------------------------------------------------|-----------------------------------------------------------------------|-----------------------------------------------------------------------|-----------------------------------------------------------------------|----------------------------8-8--------5---8---7----------8---10-------|--0-0-0-0-0--5-6-3--6-7------8-8---------------10-10-------------------|. . . . . . . . .play through twice then start from begining again.
--------------------------------------------------------|--------------------------------------------------------|--------------------------------------------------------|--------------------------------------------------------|------------5--3--6--5--3--3h5p3------------------------|--0--0--0----------------------------6--5---------------|
--------------------------------------------------------|--------------------------------------------------------|--------------------------------------------------------|-----------------------------4h5p4-----4----------------|------------5--3--6--5--3-----------6-------------------|--0--0--0-----------------------------------------------|
you can work out order easy enought. thats all the riffs atleast.
Please rate this tab:
x1.0