Oar - 52-50 tab

Band: OAR
Song: 52-50 intro
Tabbed by: O-52-A-50-R

I wrote this down as the intro
but it repeats during the song

|---9--12----9--12----9--12----9--12----------9---||12-------12-------12-------12----------10-12-----||------------------------------------13-----------||-------------------------------------------------||-------------------------------------------------||-------------------------------------------------|
|---9--12----9--12----9--12----9--12----------9---||12-------12-------12-------12----------10-12-----||------------------------------------13-----------||-------------------------------------------------||-------------------------------------------------||-------------------------------------------------|
|------12-------12-------12-------12--------------||---10-------10-------10-------10------10-12------||13-------13-------13-------13------13------------||-------------------------------------------------||-------------------------------------------------||-------------------------------------------------|
|-------------------------------------------------||-------------------------------------------------||---11-13----11-13----11-13----11-13--------------||14-------14-------14-------14-------11-9---------||-------------------------------------------------||-------------------------------------------------|
|----9-12----9--12----9-12-----9-12-12/14-12------||12-------12-------12-------12--------------------||-------------------------------------------------||-------------------------------------------------||-------------------------------------------------||-------------------------------------------------|
|---9--12----9--12----9--12----9--12----------9---||12-------12-------12-------12----------10-12-----||------------------------------------13-----------||-------------------------------------------------||-------------------------------------------------||-------------------------------------------------|
|------12-------12-------12-------12--------------||---10-------10-------10-------10------10-12------||13-------13-------13-------13------13------------||-------------------------------------------------||-------------------------------------------------||-------------------------------------------------|
|-------------------------------------------------||-------------------------------------------------||---11-13----11-13----11-13----11-13--------------||14-------14-------14-------14-------11-9---------||-------------------------------------------------||-------------------------------------------------|
*This is what the bass plays during the part I tabbed above (only during the intro, not else in the song), its really simple
|--------------------------||--------------------------||--------------------------||--------------------------| (Rpt till end of intro)|--------------------------||2--2--2-2-2-2-0-0-0-0-0-0-|
Tap to rate this tab
 
# A B C D E F G H I J K L M N O P Q R S T U V W X Y Z